Alice In Chains - So Close Chords & Tabs

 

So Close Chords & Tabs

Alice In Chains Chords & Tabs

Version: 2 Type: Tab 0 ratings
1 star 2 stars 3 stars 4 stars 5 stars
comments

So Close Tab

Alice In Chains - So Close
Submitted By: Sqweeky
EMail: Blindside831@aol.com
From: Sunshine (facelift@gte.net)


It's based on the Hal Leonard Tab Book.

E-------------------------------------------------------------------------------

B-------------------------------------------------------------------------------

G-------------------------3--------3--------2-----------------------3--------3--

D--------3--------2----------3--------------3--------3--------2-----3--3--3--3--

A--------------------1----------1--------3-----------------------1-----1--1--1--

E--0--3-----0--2----------------------1--------0--3-----0--2---------------------------------||

-------------||

------2------||

------3------||

---3---------||

1------------||

                                                  4x

E-------------------------------------------------||

B-------------------------------------------------||

G------------------------3--------3--------2------||

D--------3--------2---------3--------------3------||

A--------------------1---------1--------3---------||
[ Tab from: http://www.guitartabs.cc/tabs/a/alice_in_chains/so_close_tab_ver_2.html ]
E--0--3-----0--2---------------------1------------||

    ~~~~~~~~~~~                            2x

E----------------0-------------------------||

B-------------------6----------------------||

G--(0)-----------------7-----7--0--0-------||

D-------------------------8----------------||

A------------------------------------------||

E------------------------------------------||
CHORUS

E--------------------0-----------------------------0----------------------------

B--------------------0-----------------------------0----------------------------

G-------------3------3----------------------3------3------------------------2--1

D--2--3--4----4------4------------2--3--4---4------4--------4--3--2----2----2--2

A--2--3--4----4---4--4------------2--3--4---4---4--4--------4--3--2----2----2--2

E--0--1--2----2---2--2------------0--1--2---2---2--2--------2--1--0----0----0--0------------------------0---||

------------------------0---||

-----1--2--2--2--2--1---1---||

-----2--2--2--2--2--2---2---||

-----2--2--2--2--2--2---2---||

-----0--0--0--0--0--0---0---||

Hope this is good enough to get you started.

Sunshine
Comments