Alice In Chains - Sea Of Sorrow Chords & Tabs

 

Sea Of Sorrow Chords & Tabs

Alice In Chains Chords & Tabs

Version: 3 Type: Tab 0 ratings
1 star 2 stars 3 stars 4 stars 5 stars
comments

Sea Of Sorrow Tab

   
Band:  Alice In Chains
Album: Facelift
Song:  Sea Of Sorrow
Tabbed by: branimirbozak@inet.hr

Tuning: half step down Eb,Ab,Db,Gb,Bb,Eb


Riff A:
      w/slight distortion
eb:-|--0-0------------0-0-----0-0------------------------0-0------------0-0-------------------|
Bb:-|--0-0------------0-0-----0-0------------------------0-0------------0-0-------------------|
Gb:-|--3-3------------3-3-----3-3-----9-----10-9--7------3-3------------3-3-------------------|
Db:-|--5-5--9---------5-5--9--5-5-----7-----8--7--5------5-5--9---------5-5--9---12-9----9----|
Ab:-|--5-5--7---------5-5--7--5-5-------------------7----5-5--7---------5-5--7---10-7----7----|
Eb:-|-------0--------------0------0-0---------------0---------0--------------0--------0--0----|
                                  pm:        					      pm

Solo A:
 this is probably wrong, but if you can do best, do it yourself
eb:-|-----------------------------------------------------------------------------------------------|
Bb:-|--slow bend---hold----slow release---------------------------------15b(17)r15-12--8-10-8-------|
Gb:-|---7b(::9)-------------(9r:::7)--/4-/2-/0-\2-\4/2\4/2\4-0--------------------------------7~~---|
Db:-|-----------------------------------------------------------------------------------------------|
Ab:-|-----------------------------------------------------------------------------------------------|
Eb:-|-----------------------------------------------------------------------------------------------|

Riff B:
      w/slight distortion
eb:-|--0-0------------0-0-----0-0------------------------0-0------------0-0-------------------|
Bb:-|--0-0------------0-0-----0-0------------------------0-0------------0-0-------------------|
Gb:-|--3-3------------3-3-----3-3-----9-----10-9---------3-3------------3-3-------------------|
Db:-|--5-5--9---------5-5--9--5-5-----7-----8--7--12-----5-5--9---------5-5--9---12-9----9----|
Ab:-|--5-5--7---------5-5--7--5-5-----------------10-----5-5--7---------5-5--7---10-7----7----|
Eb:-|-------0--------------0------0-0-------------------------0--------------0--------0--0----|
                                  pm:        					      pm
Riff B: Verse
      Bb5/G            F5/G            Bb5/G            F5/G
eb:-|------3---------------3----------------3---------------3------|
Bb:-|------3---------------3----------------3---------------3------|
Gb:-|------0---------------0----------------0---------------0------|
Db:-|--0\0-0---------------0------------0\0-0---------------0------|
Ab:-|--5\2-2---------------2------------5\2-2---------------2------|
Eb:-|--6\3-3-----------1/3-3------------6\3-3-----------1/3-3------|

       G5\F          Bb5/C5       Bb5\G            F5/G
eb:-|------1----------------8------------3-------------3-----------|
Bb:-|------1----------------8------------3-------------3-----------|
Gb:-|------2----------------9------------0-------------0-----------|
Db:-|--5\3-3-----------8/10-10------0\0--0-----------0-0-----------|
Ab:-|--5\3-3-----------8/10-10------5\2--2-----------2-2-----------|
Eb:-|--3\1-1-----------6/8--8-------6\3--3---------1/3-3-----------|
[ Tab from: http://www.guitartabs.cc/tabs/a/alice_in_chains/sea_of_sorrow_tab_ver_3.html ]
Riff C: You opened fire...
       F       C5             G                 F       C5              G
eb:-|--1----------------------3-----------------1-----------------------3-----------|
Bb:-|--1----------------------3-----------------1-----------------------3-----------|
Gb:-|--2-------5--------------0-----------------2-------5---------------0-----------|
Db:-|--3-------5----------0\0-0-----------------3-------5-----------0\0-0-----------|
Ab:-|--3-------3----------5\2-2-----------------3-------3-----------5\2-2-----------|
Eb:-|--1------------------6\3-3-----------------1-------------------6\3-3-----------|

       F       C5          A5   A6A5A6...
eb:-|--1-------------------------------------------------------|
Bb:-|--1-------------------------------------------------------|
Gb:-|--2-------5-----------------------------------------------|
Db:-|--3-------5-----------------------------------------------|
Ab:-|--3-------3-----------7-7--9-7-9-7-7--7-7--9-7-9-7-7------|
Eb:-|--1-------------------5-5--5-5-5-5-5--5-5--5-5-5-5-5------|
                           pm::::::::::::::::::::::::::::

Riff D: Chorus
       G5        A5           E5
eb:-|--------------------------------------|
Bb:-|--------------------------------------|
Gb:-|--------------------------------------|
Db:-|--5---------7------------2------------|
Ab:-|--5---------7------------2------------|
Eb:-|--3---------5------------0------------|

Riff E:
      w/slight distortion
eb:-|--0-0------------0-0-----0-0------------------------0-0------------0-0-------------------|
Bb:-|--0-0------------0-0-----0-0------------------------0-0------------0-0-------------------|
Gb:-|--3-3------------3-3-----3-3-----7-----10-9---------3-3------------3-3-------------------|
Db:-|--5-5--9---------5-5--9--5-5-----5-----8--7--12-----5-5--9---------5-5--9---12-9----9----|
Ab:-|--5-5--7---------5-5--7--5-5-----------------10-----5-5--7---------5-5--7---10-7----7----|
Eb:-|-------0--------------0------0-0-------------------------0--------------0--------0--0----|
                                  pm:        					      pm

Solo: (or at least a closet aproximation of it...not finished)
       w/wah
            from closed to open slowly ---------------------------------------------------------------------
eb:-|12-----------------------------------------------------------------------------------------------------|
Bb:-|12-12h15p12h15p12h15p12h15p12h15p12h15p12h15p12--15b(17)r15-12-15b(17)-12-15-15-15---------------------|
Gb:-|-----------------------------------------------------------------------12-14-14-14----14b-12-14-12-----|
Db:-|-----------------------------------------------------------------------------------12--------------14~~|
Ab:-|-------------------------------------------------------------------------------------------------------|
Eb:-|-------------------------------------------------------------------------------------------------------|

eb:-|------------------------------------------------|
Bb:-|------------------------------------------------|
Gb:-|------------------------------------------------|
Db:-|------------------------------------------------|
Ab:-|------------------------------------------------|
Eb:-|------------------------------------------------|

Riff F: chorus at the end of the song
       G5       A5       E5
eb:-|------------------------------------------------|
Bb:-|------------------------------------------------|
Gb:-|------------------------------------------------|
Db:-|------------------------------------------------|
Ab:-|--5-5-5-5--7-7-7-7--2-2-2-2---------------------|
Eb:-|--3-3-3-3--5-5-5-5--0-0-0-0---------------------|
       pm:::::::::::::::::::::::
 online store
Comments