Alice In Chains - Sea Of Sorrow Chords & Tabs

 

Sea Of Sorrow Chords & Tabs

Alice In Chains Chords & Tabs

Version: 2 Type: Tab 0 ratings
1 star 2 stars 3 stars 4 stars 5 stars
comments

Sea Of Sorrow Tab

Song:sea of sorrow (intro)
band:alice in chains
album:facelift

key:
/=slide
^=bend
^v=bend and release


use a slide for guitar 2

guitar 1
|-------------------------------------------------------------------------|
|-------------------------------------------------------------------------|
|7-7---9-------------7-7---9----12-12-----12^---14^v--12/-------7-7-----9-|
|8-8---9-------------8-8---9----12-12-----12^---14^v--12/-------8-8-----9-|
|-------------------------------------------------------------------------|
|----0-------------------0----0-------0-0-----0-----------0----------0----|
[ Tab from: http://www.guitartabs.cc/tabs/a/alice_in_chains/sea_of_sorrow_tab_ver_2.html ]
guitar 2
|---------------------------------------------------------------------------|
|---------------------------------------------------------------------------|
|---------4/7/9------------9/7----------0-2/4/--------------2/3-2/3/0/2---0-|
|---------------------------------------------------------------------------|
|---------------------------------------------------------------------------|
|---------------------------------------------------------------------------|


guitar 1
|---------------------------|
|-----------0---------------|
|7-7---9----0-0---------9-9-|
|8-8---9----0-----------9-9-|
|---------------------------|
|----0----------0----0------|

guitar 2
|----8/12-------------------|
|---------------12/3----3---|
|---------------------------|
|---------------------------|
|---------------------------|
|---------------------------|
Comments