Alice In Chains - Rooster Chords & Tabs

 

Rooster Chords & Tabs

Alice In Chains Chords & Tabs

Version: 2 Type: Tab 1 rating
1 star 2 stars 3 stars 4 stars 5 stars
comments

Rooster Tab

   
This is some other guy’s tab I just cleaned it up so that it’s easier to read and took out his stupid sh*t that wasn’t needed

Intro:

Guitar 1 (clean w/ chorus)     

     F#  F#7add4         A   Aadd2
e----2-2-0---0-0-0-0--|--5-5-0---0-0-0-0-----
B----2-2-0---0-0-0-0--|--5-5-0---0-0-0-0-----
G----3-3-3---3-3-3-3--|--6-6-6---6-6-6-6-----
D----4-4-4---4-4-4-4--|--7-7-7---7-7-7-7----- (Repeat a couple of Times)
A----4-4-4---4-4-4-4--|--7-7-7---7-7-7-7-----
E----2-2-2---2-2-2-2--|--5-5-5---5-5-5-5-----

1st verse:
Guitar 1 repeats intro
Guitar 2 (w/ dist. & envelope filter) plays:
                                 (fdbk)
e--------|-----|-----|-----|-----|-----|-----|-----|-----|-----------|G
B--------|-----|-----|-----|-----|-----|-----|-----|-----|-----------|U  O
G---6~~~~|~~~~~|~~~~~|~~~~~|~(6)~|~~~~~|~(6)~|~~~~~|~~~~~|~~~--------|I  N
D--------|-----|-----|-----|-----|-----|-----|-----|-----|-----------|T  E
A--------|-----|-----|-----|-----|-----|-----|-----|-----|---4--3--2-|A
E--------|-----|-----|-----|-----|-----|-----|-----|-----|-----------|R
[ Tab from: http://www.guitartabs.cc/tabs/a/alice_in_chains/rooster_tab_ver_2.html ]
e-------------|---------|---------|-5~~~--------|--5------|---------|G
B-------------|---------|----7~~~~|---------5-7-|----7----|--(7)~~~-|U   T
G-------------|---------|---------|--2~~~-------|--2------|---------|I   W  
D-------4~~~~~|---------|--4------|---------2-4-|----4----|--(4)~~~-|T   O
A-------------|---------|---------|-------------|---------|---------|A   
E--5-2--------|---------|----5~~~~|-------------|---------|---------|R


Chorus:

   B   D                  F#7ADD4/E    F#     B/F#
e--7---10---X-X---         ---0--------2----------------------
B--7---10---X-X---         ---0--------2-------4--------------
G--8---11---X-X---         ---3--------3-------4--------------
D--9---12---X-X---         ---4--------4-------4--------------
A--9---12---X-X---         ---4--------4-------2--------------
E--7---10---------         ---0--------2-------2--------------


Then this again:

      B   D                  
e--7---10---X-X---         
B--7---10---X-X---         
G--8---11---X-X---         
D--9---12---X-X---         
A--9---12---X-X---         
E--7---10---------         

Comments