Alice In Chains - Right Turns Chords & Tabs

 

Right Turns Chords & Tabs

Alice In Chains Chords & Tabs

Version: 1 Type: Bass Tab 0 ratings
1 star 2 stars 3 stars 4 stars 5 stars
comments

Right Turns Bass Tab

The bass of right turns starts 20 seconds into the song.

G ---------|---------|---------|---------|---------|---------|---------|
D -5-5-5-5-|-5-5-5-5-|---------|---------|-5-5-5-5-|-5-5-5-5-|---------|
A ---------|---------|-7-7-7-7-|-7-7-7-7-|---------|---------|-7-7-7-7-|
E ---------|---------|---------|---------|---------|---------|---------|

G -|---------|---------|---------|---------|---------|---------|-------|
D -|---------|---------|---------|-------5-|-5-5-5-5-|---------|-7-7-7-|
A -|-7-7-7-7-|-8-8-8-8-|-7-7-7-7-|-8-5-7---|---------|-8-8-8-7-|-------|
E -|---------|---------|---------|---------|---------|---------|-------|

G ---|---------|---------|---------|---------|---------|---------|-----|
D -7-|-7-7-7-5-|---------|---------|-7-7-7-7-|-7-7-7-5-|---------|-----|
A ---|---------|-7-7-7-7-|-7-7-7-5-|---------|---------|-7-7-7-7-|-7-7-|
E ---|---------|---------|---------|---------|---------|---------|-----|

G -----|---------|---------|---------|---------|---------|---------|---|
D -----|-7-7-7-7-|-7-7-7-7-|---------|---------|-------5-|---------|---|
A -7-5-|---------|---------|-8-8-8-8-|-7-7-7-7-|-8-5-7---|-7-7-7-7-|-7-|
E -----|---------|---------|---------|---------|---------|---------|---|

G -------|---------|---------|---------|---------|---------|---------|
D -------|-7-7-7-7-|-7-7-7-5-|---------|---------|-7-7-7-7-|-7-7-7-5-|
A -7-7-5-|---------|---------|-7-7-7-7-|-7-7-7-5-|---------|---------|
E -------|---------|---------|---------|---------|---------|---------|
[ Tab from: http://www.guitartabs.cc/tabs/a/alice_in_chains/right_turns_btab.html ]
G ---------|---------|---------|---------|---------|---------|---------|
D ---------|---------|-7-7-7-7-|-7-7-7-7-|---------|---------|---------|
A -7-7-7-7-|-7-7-7-5-|---------|---------|-8-8-8-8-|-7-7-7-7-|-8-8-8-8-|
E ---------|---------|---------|---------|---------|---------|---------|

G -|---------|---------|---------|---------|---------|---------|-------|
D -|---------|---------|-----5-5-|-5-5-5-7-|---------|---------|-7-7-7-|
A -|-7-7-7-7-|-8-8-8-8-|-7-7-----|---------|-7-7-7-7-|-7-7-7-5-|-------|
E -|---------|---------|---------|---------|---------|---------|-------|

G ---|---------|---------|---------|---------|---------|---------|-----|
D -7-|-7-7-7-5-|---------|---------|-7-7-7-7-|-7-7-7-5-|---------|-----|
A ---|---------|-7-7-7-7-|-7-7-7-5-|---------|---------|-7-7-7-7-|-7-7-|
E ---|---------|---------|---------|---------|---------|---------|-----|

G -----|---------|---------|---------|---------|---------|---------|---|
D -----|-7-7-7-7-|-7-7-7-5-|---------|---------|-7-7-7-7-|-7-7-7-5-|---|
A -7-5-|---------|---------|-7-7-7-7-|-7-7-7-5-|---------|---------|-7-|
E -----|---------|---------|---------|---------|---------|---------|---|

G -------|---------|---------|---------|---------|---------|---------|
D -------|---------|-7-7-7-7-|-7-7-7-5-|---------|---------|-7-7-7-7-|
A -7-7-7-|-7-7-7-5-|---------|---------|-7-7-7-7-|-7-7-7-5-|---------|
E -------|---------|---------|---------|---------|---------|---------|

G ---------|---------|---------|
D -7-7-7-5-|---------|---------|
A ---------|-7-7-7-7-|-7-7-7-7-|
E ---------|---------|---------|
Comments