Alice In Chains - Put You Down Chords & Tabs

 

Put You Down Chords & Tabs

Alice In Chains Chords & Tabs

Version: 1 Type: Bass Tab 0 ratings
1 star 2 stars 3 stars 4 stars 5 stars
comments

Put You Down Bass Tab

Alice in Chains
Put You Down

intro
G|------------|--------------------------------------|----------|
D|------------|--------------------------------------|----------|
A|----00--22--|-22--2-0----------------------22-2222-|-22-32-0--|
D|-44---------|-----------44-4444---77-7777----------|----------|

verse
G|---------------|-----------------|----------------|-----------|
D|---------------|*---------------*|----------------|-----------|
A|---------------|*---------------*|----------------|-----------|
D|-4-44-44-44-44-|--2-44-44-44-44--|--2-44-44-44-44-|-----------|
[ Tab from: http://www.guitartabs.cc/tabs/a/alice_in_chains/put_you_down_btab.html ]
end of verse
1            2         3
G|----------|---------|-----------------|------------------------|
D|----------|---------|-----------------|------------------------|
A|----------|-0-------|-----------------|------------------------|
D|-11------|---2-----|-222-2-2-2-2-2-2-|-------------------------|

bridge
G|-------------------|--------------------|----------------------|
D|-------------------|--------------------|----------------------|
A|-----2-4-4-44-44-4-|----2-4-5-5-5-5-----|-7--------------------|
D|--6----------------|--6-----------------|----------------------|

chorus
G|----------------------------------------------------|----------|
D|----------------------------------------------------|----------|
A|---------------0-0-x0-x0-00--2-2-x2-x2--22--3-2--0--|----------|
D|-4-4-x4-x4-44---------------------------------------|----------|

the end
G|--------------------------------------------------------------|
D|--------------------------------------------------------------|
A|-0-x0-x0-x0-x0--2-x2-x2-x2-x2---------------------------------|
D|-------------------------------4-x4-x4-x4-x4-2-4-x4-x4-x4-x4--|
Comments