Alice In Chains - Over Now Chords & Tabs

 

Over Now Chords & Tabs

Alice In Chains Chords & Tabs

Version: 1 Type: Tab 0 ratings
1 star 2 stars 3 stars 4 stars 5 stars
comments

Over Now Tab

   
OVER NOW
by ALICE IN CHAINS

****TUNED IN OPEN D AND A HALF STEP DOWN****
    
Tuning (low to high):  D-A-D-F#-A-D

Rythym Figure #1

-4--7-6-4-4-4-4---4-4--4-4-
-4--4-4-4-7-6-4---4-4--4-4-
-4--4-4-4-4-4-4---5-4--5-4-
-4--4-4-4-4-4-4---4-4--4-4-
-4--4-4-4-4-4-4---4-4--4-4-
-4--4-4-4-4-4-4---4-4--4-4-

Rythym Figure #2

-3-2-0-0-0-0---0-0--0-0-  
-0-0-0-3-2-0---0-0--0-0-
-0-0-0-0-0-0---2-0--2-3-
-0-0-0-0-0-0---0-0--0-0-
-0-0-0-0-0-0---0-0--0-0-
-0-0-0-0-0-0---0-0--0-0-

Intro: Fig. 1, Fig. 2, Fig. 1, Fig. 2

Verse: Fig. 1 x2, Fig. 2, Fig. 1

Chorus: ("You know it's been on my mind...")

-7----7----7--7----7--7--7---7--7--6----6---6--6---9---9--9--9---9--9--9--9-
-7---10---10--7----7--7-10--10-10--6----9---9--9--12--12-12--9---9--9-12-12-
-7----7----7--7----7--7--7---7--7--6----6---6--6---9---9--9--9---9--9--9--9-
-7----7----7--7----7--7--7---7--7--6----6---6--6---9---9--9--9---9--9--9--9-
-7----7----7--7----7--7--7---7--7--6----6---6--6---9---9--9--9---9--9--9--9-
-7----7----7--7----7--7--7---7--7--6----6---6--6---9---9--9--9---9--9--9--9-

Repeat Verse for ost-chorus

2nd and 3rd Post-chorus picking figures:

-----------------------------------2-------
-------0--------2-------4------------0-----
-----3---3--------3-------3-----3------3---
-----------------------------------------0-      
------------------------------------------- 
-4-----------4-------4-------4-------------

--------------------------------0-------
------0-------2------4------------4-----
----3---3-------3------3-----3------3---
--------------------------------------0-     
----------------------------------------
-0---------0-------0------0-------------

Outro:

----0---------0---------0---------0------
--------4----------4---------4---------4-
-----------------------------------------
-----------------------------------------
-4----4----4----4----4----4----4----4----
-4----4----4----4----4----4----4----4----

---------0---------0---------0---------0-
---4----------4---------4---------4------
-----------------------------------------
----------------------------------------- 
-0----0----0----0----0----0----0----0----
-0----0----0----0----0----0----0----0----

After playing outro a few times, rest for 1/2 measure
and play this:

----0-----------------------0------
---------4-----------------------4-
---------0-----------------------0-
-----------------------------------
-4----4------------------0----0----
-4----4------------------0----0----

------------------------------
---------9^11-------9^11^9----
-7^8^7----------------------8-
------------------------------
------------------------------
------------------------------

Lyrics to 'Over Now' (not sure on a few):

Yeah, its over now
But I can breathe somehow.
When it's all worn out
I'd rather go without.

You know it's been on my mind,
Could you stand right here
Look me straight in the eye and say
That it's over now?

We pay our debts sometime.

Well it's over now
Yet I can see somehow.
When it's all gone wrong
It's hard to be so strong.

We pay our debts sometime.

Yeah, it's over now
I seem alive some how.
When it's out of sight
Just wait and do your time.

You know it's been on my mind,
Could i stand  right here
Look myself in the eye and say
That it's over now?

We pay our debts sometime.

*********************************************
*Tab done by Jeremy at 5403208@mail-1.ns.net*
*********************************************



Date: Fri, 21 Feb 1997 19:08:21 -0500 (EST)
From: AiC5150@aol.com
Subject: Over Now by Alice in Chains from the self titled album (guitar tab)

Here are all the main rhytym parts, the rest should be easy to figure out
yourself.


tuning(low to high): Db,Ab,Db,F,Ab,Db
[ Tab from: http://www.guitartabs.cc/tabs/a/alice_in_chains/over_now_tab.html ]
riff 1
-----------7---6---4----------------------------------------------------
-----------4---4---4---7---6---4--------------------------------------
-----------4---4---4---4---4---4------------5---4-------5-------4--
-------------------------4---4---4------------4---4-------4-------4--
------------------------------------------------6---4-------6-------4--
--4---4------------------------------4---4------------4-------4-------

riff 1A
-----------3---2---0----------------------------------------------------
-----------0---0---0---3---2---0--------------------------------------
-----------0---0---0---0---0---0------------1---0-------1-------0--
-------------------------0---0---0------------0---0-------0-------0--
------------------------------------------------2---0-------2-------0--
--0---0------------------------------0---0------------0-------0-------

riff 2
------------------------------------------------------------------------------
---------------------------------
-----------10-----10--10------10----------10------10--10-----------------9----
---9-------------9--
-----------7--------7---7--------7------------7--------7---7------------------
6-------6-------------6--
-----------7--------7---7--------7------------7--------7---7------------------
6-------6-------------6--
-----------7--------7---7--------7------------7--------7---7------------------
6-------6-------------6--
--7---7---7---7---7---7---7---7---7---7---7---7---7---7---7---6---6---6---6---
6---6---6---6--

-----------------------------------------------------------------------------
-----------12-----12--12------12-----------12-----12--12------12-
------------9-------9---9--------9-------------9-------9---9--------9--
------------9-------9---9--------9-------------9-------9---9--------9--
------------9-------9---9--------9-------------9-------9---9--------9--
--9---9---9---9---9---9---9---9---9---9---9---9---9---9---9---9--

riff 3
----------------------------------------------------2-------------------------
--------------------------------------------
---------0-----------2-----------4--------------------4--------------------0--
----------2------------4----------------
-----3-------3-----------3----------3-------3------------3-----------3-------3
------------3------------3--------3--
--4--------------4-----------4----------4---------------------4---0-----------
----3-------------0-----------0--------
------------------------------------------------------------------------------
----------------------------------------------
------------------------------------------------------------------------------
----------------------------------------------

---0-----------------
---------4-----------
--------------3------
------------------0--
----------------------
----------------------

riff 4
-----0---------------0------------------0-----------------0-------------------
-------------0------------------0--------
-------------4-----------------4-----------------4------------------4---------
-----4----------------4------------------
---------0--------0-------0--------0--------0-------0---------0--------0------
------0-------0---------0--------0--
------------------------------------------------------------------------------
---------------------------------------------
------------------------------------------------------------------------------
---------------------------------------------
--4---------------------------------------------------------------------------
---0----------------------------------------

Song Structure

Intro:
Play riff 1, then riff 1A(repeat)

1st Verse:
Play riff 1 twice, then riff 1A, then riff 1 again(repeat)

1st Chorus
Play riff 2
 
Repeat Intro

2nd Verse:
Same as 1st verse

2nd Chorus:
Same as first chorus

Repeat Intro

Bridge:
Play riff 3(repeat 5 times)

3rd Verse:
Same as 1st verse

3rd Chorus:
Same as 1st chorus

Repeat Intro

2nd Bridge:
Play riff 3(repeat 6 times)

Outro:
Play riff 4(repeat 3 1\2 times)
(The very end of the song is very close to riff 4, so I did not tab it out)
Comments