Alice In Chains - Nutshell Chords & Tabs

 

Nutshell Chords & Tabs

Alice In Chains Chords & Tabs

Version: 1 Type: Tab 2 ratings
1 star 2 stars 3 stars 4 stars 5 stars
comments

Nutshell Tab

Subject:Alice in Chains “Nutshell”(acoustic)solo tabs.
From: arslpk@yahoo.com  


"Nutshell(unplugged)" from the Alice in Chains album Jar of Flies

s = slide
h = hammer on

e------------------------------10--------------------------------|
b------------------8---8-10s12----12s10-8-10-8-7-8-7-------------|
g-----------7-9------9------------------------------9-7-9-7------|
d-----5-7s9------------------------------------------------------|
a-5h7------------------------------------------------------------|
e----------------------------------------------------------------|
[ Tab from: http://www.guitartabs.cc/tabs/a/alice_in_chains/nutshell_tab.html ]
e----------------------------------------------------------------|
b--------------------------------------------------------7-8-10--|
g---------------------------------------------------7-9-9--------|
d-7-9-7-5-7-9-9h7h5-7-5-7-5--------------------5-7s9-------------|
a---------------------------7s4------------5h7-------------------|
e----------------------------------------------------------------|

e----------------------------------------------------------------|
b-8-7----7h8p7---------------------------------------------------|
g-----9--------9h11p9—7-7h9p7-7-7--------------------------------|
d---------------------------------9-9-9-7-9-7-5-7-5-7s9----------|
a----------------------------------------------------------------|
e----------------------------------------------------------------|


mail me for any problems and suggestions.
Comments