Alice In Chains - Nutshell Chords & Tabs

 

Nutshell Chords & Tabs

Alice In Chains Chords & Tabs

Version: 3 Type: Bass Tab 0 ratings
1 star 2 stars 3 stars 4 stars 5 stars
comments

Nutshell Bass Tab

riff 1
G-----------------------------------------|
D-------------------------7-5-------------|
A---3-3-3-3-5-7----7-5--------------------|
E-----------------------------------------|

G-----------------------------------------|
D-------------------------7-5-------------|
A---3-3-3-3-5-7----7-5--------------------|
E-----------------------------------------|

G-----------------------------------------|
D-------------------------7-5-------------|
A---3-3-3-3-5-7----7-5--------------------|
E-----------------------------------------|

riff 2
G---7-5------------------------------------|
D--------7-5-------------------7-5---------|
A--------------5-7--------7-5--------------|
E------------------------------------------|

riff 1
G-----------------------------------------|
D-------------------------7-5-------------|
A---3-3-3-3-5-7----7-5--------------------|
E-----------------------------------------|

riff 3
G-----7\12---12-11-----------------------------------------|
D-----------------------12-------------------------7-5-----|
A----------------------------12------10-----7-5------------|
E---------------------------------12-----------------------|

riff 1
G-----------------------------------------|
D-------------------------7-5-------------|
A---3-3-3-3-5-7----7-5--------------------|
E-----------------------------------------|

riff 3
G-----7\12---12-11-----------------------------------------|
D-----------------------12-------------------------7-5-----|
A----------------------------12------10-----7-5------------|
E---------------------------------12-----------------------|

riff 1
G-----------------------------------------|
D-------------------------7-5-------------|
A---3-3-3-3-5-7----7-5--------------------|
E-----------------------------------------|

riff 2
G---7-5------------------------------------|
D--------7-5-------------------7-5---------|
A--------------5-7--------7-5--------------|
E------------------------------------------|

riff 1
G-----------------------------------------|
D-------------------------7-5-------------|
A---3-3-3-3-5-7----7-5--------------------|
E-----------------------------------------|

riff 3
G-----7\12---12-11-----------------------------------------|
D-----------------------12-------------------------7-5-----|
A----------------------------12------10-----7-5------------|
E---------------------------------12-----------------------|
[ Tab from: http://www.guitartabs.cc/tabs/a/alice_in_chains/nutshell_btab_ver_3.html ]
riff 1
G-----------------------------------------|
D-------------------------7-5-------------|
A---3-3-3-3-5-7----7-5--------------------|
E-----------------------------------------|

riff 1
G-----------------------------------------|
D-------------------------7-5-------------|
A---3-3-3-3-5-7----7-5--------------------|
E-----------------------------------------|

riff 2
G---7-5------------------------------------|
D--------7-5-------------------7-5---------|
A--------------5-7--------7-5--------------|
E------------------------------------------|

riff 3
G-----7\12---12-11-----------------------------------------|
D-----------------------12-------------------------7-5-----|
A----------------------------12------10-----7-5------------|
E---------------------------------12-----------------------|

riff 1
G-----------------------------------------|
D-------------------------7-5-------------|
A---3-3-3-3-5-7----7-5--------------------|
E-----------------------------------------|

riff 1
G-----------------------------------------|
D-------------------------7-5-------------|
A---3-3-3-3-5-7----7-5--------------------|
E-----------------------------------------|

riff 1
G-----------------------------------------|
D-------------------------7-5-------------|
A---3-3-3-3-5-7----7-5--------------------|
E-----------------------------------------|

riff 3
G-----7\12---12-11-----------------------------------------|
D-----------------------12-------------------------7-5-----|
A----------------------------12------10-----7-5------------|
E---------------------------------12-----------------------|

riff 1
G-----------------------------------------|
D-------------------------7-5-------------|
A---3-3-3-3-5-7----7-5--------------------|
E-----------------------------------------|

riff 2
G---7-5------------------------------------|
D--------7-5-------------------7-5---------|
A--------------5-7--------7-5--------------|
E------------------------------------------|

riff 1
G-----------------------------------------|
D-------------------------7-5-------------|
A---3-3-3-3-5-7----7-5--------------------|
E-----------------------------------------|

riff 3
G-----7\12---12-11-----------------------------------------|
D-----------------------12-------------------------7-5-----|
A----------------------------12------10-----7-5------------|
E---------------------------------12-----------------------|
Comments