Alice In Chains - Man In The Box Chords & Tabs

 

Man In The Box Chords & Tabs

Alice In Chains Chords & Tabs

Version: 3 Type: Tab 0 ratings
1 star 2 stars 3 stars 4 stars 5 stars
comments

Man In The Box Tab

   
-------------------------------------------------------------------------------
			    MAN IN THE BOX - ALICE IN CHAINS
-------------------------------------------------------------------------------
Tabbed by:Mop

I think this is right it took me awile but im sure this is right
[ Tab from: http://www.guitartabs.cc/tabs/a/alice_in_chains/man_in_the_box_tab_ver_3.html ]
Tuning:Eb Ab Db Gb Bb Eb
                      
                            INTRO
eb|--------------------------------------------------------------------------|
Bb|--------------------------------------------------------------------------|
Gb|--------------------------------------------------------------------------|
Db|--------------------------------------------------------------------------| 
Ab|---5-----5---5------5-------5---5-----5------5---5-----5-----5---------5--|
Eb|---0--x--0---0--0---0---x---0---0--0--0---x--0---0--0--0--x--0--0--5h7----|               
                   pm                 pm               pm

                             With talk box or Wah
eb|---------------------------------------------------------------------------|
Bb|---------------------------------------------------------------------------|
Gb|---4~~~~-7~~~---7/9~~~-----------------------------------------------------|
Db|-------------------------7~~~--7/9~~~--5~~~--5/7~~~--5~~~~-----------------|
Ab|--------------------------------------------------------------7~~~~~-------|
Eb|---------------------------------------------------------------------------|

| /  slide up
| h  hammer-on
| pm palm mute note
| ~  vibrato
| x  Mute note
===============================================================================
Comments