Alice In Chains - I Stay Away Chords & Tabs

 

I Stay Away Chords & Tabs

Alice In Chains Chords & Tabs

Version: 1 Type: Bass Tab 0 ratings
1 star 2 stars 3 stars 4 stars 5 stars
comments

I Stay Away Bass Tab

   
I Stay Away- By Alice in Chains (Jar of Flies)
Tabbed By STeven G. Dharma77@aol.com
Im pretty sure the tuning is "Dropped D" tuning 1/2 a step down
(Db, Ab, Db, Gb)
[ Tab from: http://www.guitartabs.cc/tabs/a/alice_in_chains/i_stay_away_btab.html ]
G------------------------------|-----------------------------------
D-:-----------------------------|----------------------------------
A-:-----------5---0--3------02--|--3--2-------------------------------------
E------0-5-7-------------------|---------5---5-5--4--0------------------
	YEAH, I WANT TO TRAVEL SOUTH THIS YEAR
G-------------------------------|-----------------------------------  |
D-------------------------------|--------------5------4--------------:|
A------------5---0-3-------0-2--|----3---2------------------5---3----:|-------
E------0-5-7--------------------|-------------------------------------|-
PRE- CHORUS             repeat 8X  Chorus
G-------------------------------|------------------------7------------
D-:---------------------------:-|:-----------------------------------:-
A-:-----------------bend------:-|:-----5-5-55-5-5-5-5----------------:--------------
E----4--0-0-4--0- 5~------------|---------------------------------------------
     WHY     YOU....	              I STAY AWAY...
   Bb
G----------------|-----------------------------------|------------------
D----------------|----------------------2--2--3------|----------------------
A--1--1--1-------|--1--1--1--3---3-5---------------3-|-------------------------
E----------------|-----------------------------------|-----------------
THere is an interlude between the Pre Chrous and The chorus, I think it goes :
G-----7-7-------------7-7- |--------------------------------------------------
D:-0-0-----0----0-0-0-----:|-----------------------------------------------------
A:------------------------:|-1--1--1----1--3----5-5-5-5-5--0-2-3----------------------
E------------------------- |---------------------------------------------
Comments