Alice In Chains - I Cant Remember Chords & Tabs

 

I Cant Remember Chords & Tabs

Alice In Chains Chords & Tabs

Version: 1 Type: Bass Tab 0 ratings
1 star 2 stars 3 stars 4 stars 5 stars
comments

I Cant Remember Bass Tab

Intro
G|-------------------------------------------------|
D|-------------------------------------------------|
A|-------------------------------------------------|
E|-0-r--0-r-0-r-0---00-r-0-r-0-r-00-r-0-r-17-------|

verse
G|--------------------|
D|--------------------|
A|--------------------|
E|-0-00---------------|

1st variation
G|--------------------|
D|--------------------|
A|---2-0--------------|
E|-0-----3-0----------|
[ Tab from: http://www.guitartabs.cc/tabs/a/alice_in_chains/i_cant_remember_btab.html ]
2nd variation
G|--------------------|
D|--------------------|
A|---2-0--------------|
E|-0-----3-5----------|

chorus
G|-----------------------------------------------------|
D|*---------------------------------------------------*|
A|*---------------------------------------------------*|
E|-0-03-35-565-3--0-03-35-565--0-03-35-565-3-0-03-35---|

the end
G|---------------------|
D|---------------------|
A|---------------------|
E|-0--00---0-17--------|

intro
verse x3
1st variation
verse x3
2nd variation
verse x1
2nd variation
verse x3
1st variation
verse x3
2nd variation
verse x1
2nd variation
chorus x2
the end
Comments