Alice In Chains - Heaven Beside You Chords & Tabs

 

Heaven Beside You Chords & Tabs

Alice In Chains Chords & Tabs

Version: 4 Type: Tab 0 ratings
1 star 2 stars 3 stars 4 stars 5 stars
comments

Heaven Beside You Tab

   
"Heaven Beside You"
Alice In Chains
Alice In Chains (Tripod)
Columbia Records 1995

Tabbed by Yohomyth

Tuning: D#
D# G# C# F# A# D#


Main Riff
=========
1:-------------------------------|
2:-------------------------------|
3:-------------------------------|
4:-----5b6b5---------0---------0-|
5:------------7----7---7-----5---|
6:-0------------5--------5-3-----|


Chorus A (Chords)
========
1:-0----3----0----2------|
2:-2----3----1----0------|
3:-2----0----0----2--(7)-|
4:-2----0----2----1--(7)-|
5:-0----2----3----2--(5)-|
6:------3----------------|


Chorus B
========
1:---------------------------------|
2:---------------------------------|
3:-----0-------0-------0-------0---|
4:---------------------------------|
5:-3-3---3-3-3---3-4-4---4-4-4---4-|
6:-4-4---4-4-4---4-5-5---5-5-5---5-|
[ Tab from: http://www.guitartabs.cc/tabs/a/alice_in_chains/heaven_beside_you_tab_ver_4.html ]
1:---------------------------------|
2:---------------------------------|
3:-----0-------0-------0-------0---|
4:---------------------------------|
5:-5-5---5-5-5---5-6-6---6-6-6---6-|
6:-6-6---6-6-6---6-7-7---7-7-7---7-|


Interlude
=========
1:----------------------------|
2:----------------------------|
3:----------------------------|
4:-----2------------0-----0---|
5:--------1b2b1---2-----1---1-|
6:-0------------3-----2-------|

Lead:

1:--------------------------------|
2:----11---11---11b12---11---11---|
3:-------9----9------------9----9-|
4:--------------------------------|
5:--------------------------------|
6:-0------------------------------|

1:----12-------------------------------|
2:-8-------11---11---11b12---11---11---|
3:-------9----9----9------------9----9-|
4:-------------------------------------|
5:-------------------------------------|
6:-------------------------------------|
Comments