Alice In Chains - Got Me Wrong Chords & Tabs

 

Got Me Wrong Chords & Tabs

Alice In Chains Chords & Tabs

Version: 3 Type: Tab 0 ratings
1 star 2 stars 3 stars 4 stars 5 stars
comments

Got Me Wrong Tab

   
Song: Got Me Wrong
Band: Alice In Chains

Tuning is down 1/2 step.

	Intro and Verse
      G#       E        F#  	

e---4--4----0--0-0---2--2------|
B---4--4----0--0-0---2--2------|
G---5--5----1--1-1---3--3------|
D---6--6----2--2-2---4--4------|
A---6--6----2--2-2---4--4------|
E---4--4----0--0-0---2--2------|

Chorus
   D     F            C#    A 
e--------1---------1---------5----------5---|
B--7--7--1--1-1--1-1--6---6--5--5-5--5--5---|
G--7--7--2--2-2--2-2--6---6--6--6-6--6--6---|
D--7--7--3--3-3--3-3--6---6--7--7-7--7--7---|
A--5--5--3--3-3--3-3--4---4--7--7-7--7--7---|
E--------1--1-1--1-1---------5--5-5--5--5---|

  As of now           you have got me   
  
      G#       E        F#  	
[ Tab from: http://www.guitartabs.cc/tabs/a/alice_in_chains/got_me_wrong_tab_ver_3.html ]
e---4--4----0--0-0---2--2------|
B---4--4----0--0-0---2--2------|
G---5--5----1--1-1---3--3------|
D---6--6----2--2-2---4--4------|
A---6--6----2--2-2---4--4------|
E---4--4----0--0-0---2--2------|
   wrong.

Bridge:

e--0--0--2--2----5--5--5-5--5--5--5--5-----|
B--0--0--2--2-2--5--5--5-5--5--5--5--5-----|
G--1--1--3--3-3--6--6--6-6--6--6--6--6-----|
D--2--2--4--4-4--7--7--7-7--7--7--7--7-----|
A--2--2--4--4-4--7--7--7-7--7--7--7--7-----|
E--0--0--2--2-2--5--5--5-5--5--5--5--5-----|
  

e--2--2--2--2--2--2--2--5--5--5--5-5--5--5---|
B--2--2--2--2--2--2--2--5--5--5--5-5--5--5---|
G--3--3--3--3--3--3--3--6--6--6--6-6--6--6---|
D--4--4--4--4--4--4--4--7--7--7--7-7--7--7---|
A--4--4--4--4--4--4--4--7--7--7--7-7--7--7---|
E--2--2--2--2--2--2--2--5--5--5--5-5--5--5---|
  And that don't last forever

Comments