Alice In Chains - Got Me Wrong Chords & Tabs

 

Got Me Wrong Chords & Tabs

Alice In Chains Chords & Tabs

Version: 2 Type: Tab 1 rating
1 star 2 stars 3 stars 4 stars 5 stars
comments

Got Me Wrong Tab

Alice in Chains
Got Me Wrong
brentmartin90@hotmail.com

verse
eb-------------000----
bb----3------0-000----
gb----5------1-111----
db-6--6--xx--2-222--4-
ab-6--6--xx--2-222--4-
Eb-4--4--xx--0------2-

Chorus 1
eb---------------------------------------------------000----
bb------------------------------------------3------0-000----
gb-7--7-----------6-----6-------------------5------1-111----
db-7--7--3----3---6-----6------7---7-----6--6--xx--2-222--4-
ab-5--5--3----3---4-----4------7---7-----6--6--xx--2-222--4-
Eb-5--5--1----1---4-----4------5---5-----4--4--xx--0------2-
   as of now, I   think you've got me  wrong

eb---------------------------------------------------000----
bb------------------------------------------3------0-000----
gb-7--7-----------6-----6-------------------5------1-111----
db-7--7--3----3---6-----6------7---7-----6--6--xx--2-222--4-
ab-5--5--3----3---4-----4------7---7-----6--6--xx--2-222--4-
Eb-5--5--1----1---4-----4------5---5-----4--4--xx--0------2-
   so un_sure you run   from   something strong
[ Tab from: http://www.guitartabs.cc/tabs/a/alice_in_chains/got_me_wrong_tab_ver_2.html ]
Chorus 2
eb---------------------------------------------------000----
bb------------------------------------------3------0-000----
gb-7--7-----------6-----6-------------------5------1-111----
db-7--7--3----3---6-----6------7---7-----6--6--xx--2-222--4-
ab-5--5--3----3---4-----4------7---7-----6--6--xx--2-222--4-
Eb-5--5--1----1---4-----4------5---5-----4--4--xx--0------2-
   as of now, I   think you've got me  wrong

eb--------------------------------------|-------------------
bb--------------------------------------|-------------------
gb-7--7-----------6-----6---------------|-------------------
db-7--7--3----3---6-----6------7---7----|-2-2---44----77777-
ab-5--5--3----3---4-----4------7---7----|-2-2---44----77777-
Eb-5--5--1----1---4-----4------5---5----|-0-0---22----55555-
   so un_sure we  reach for    something  stro__________ng

Bridge
eb----------------------------------
bb----------------------------------
gb----------------------------------
db-4----4----4----4--7--7--7--7--7--
ab-4----4----4----4--7--7--7--7--7--
Eb-2----2----2----2--5--5--5--5--5--
   that dont last foreve________r           

that should give you a basic grasp on the song.  i didn't tab the leads because they
are already up on this site.
 
Comments