Alice In Chains - God Am Chords & Tabs

 

God Am Chords & Tabs

Alice In Chains Chords & Tabs

Version: 1 Type: Tab 0 ratings
1 star 2 stars 3 stars 4 stars 5 stars
comments

God Am Tab

          Author/Artist: Alice In Chains
          Title: God Am
          Album: Alice In Chains
          Transcribed by: Dominic "NCO" Greco
          Email: misterj13@hotmail.com
          
          the other dude totally screwed up this song. Here is the correct
          version.  Standard Tuning   EADGBE
          
          --------------------0-----------------------0-|-------------------------------
          --------------------0-------------3---------0-|-------------------------------
          -3----------2---2------2-2-2-2-2--4--2-2-2----|-------------------------------
          -3----------2---2------2-2-2-2-2-----2-2-2----|-------------------------------
          -1----------0---0------0-0-0-0-0-----0-0-0----|-------------------------------
          ----4-0-3-4-----------------------------------|-------------------------------
              PM...........      .........     .....                                    
          
          ---------|-----------------------------|-----------------|--------------------
          ---------|-----------------------------|-----------------|--------------------
          ---------|--1--1-1-1--1---1---3---3----|-----------------|--------------------
          ---------|--2--2-2-2--2---2---3---3----|-----------------|--------------------
          ---------|--2--2-2-2--2---2---1---1----|-----------------|--4/6-6-6-6-6/4-4---
          ---------|--0--0-0-0--0---0------------|--0h2-2/4-4-4-4-2|--------------------
           Chorus     Can You see the God I am     chorus fill        under solo        
          
          -----------|
          -----------|
          -----------|
          -----------|
          -4---------|
          ----7-6-7-4|
[ Tab from: http://www.guitartabs.cc/tabs/a/alice_in_chains/god_am_tab.html ]
Comments