Alice In Chains - Get Born Again Chords & Tabs

 

Get Born Again Chords & Tabs

Alice In Chains Chords & Tabs

Version: 6 Type: Tab

Get Born Again Tab

      tune 1/2 step down
e-----------------------------------------------------------------|
B-----------------------------------------------------------------|
G-----------------------------------------------------------------|
D----9---9---9/10----9-----9/12-----9-----9/10----10---10---10----|
A--7---7---7/--8---7---7-7/--10---7---7-7/--8---8----8----8----8--|
E-----------------------------------------------------------------|

e----------------------|
B----------------------|
G----------------------|
D--3-2-2-2---3-2-2-2---|
A--3-2-2-2-0-3-2-2-2---|
E--1-0-0-0-0-1-0-0-0---|
[ Tab from: http://www.guitartabs.cc/tabs/a/alice_in_chains/get_born_again_tab_ver_6.html ]
e-----------------------------|
B-----------------------------|
G-----------------------------|
D-----9------------9----------|
A--0--7-9-10-11--0-7-9-10-3---|
E--0----7-8--9---0---7-8--1---|

e---12-----------------------------------------------------|
B12----12--------------------------------------------------|
G---------12-10-12-12^-12-10-12-10-9-9h109-----------------|
D------------------------------------------10-12-12^-12-10-|
A----------------------------------------------------------|
E----------------------------------------------------------|

e---------------|
B---------------|
G---------------|
D---------------|
A10s12~~~~------|
E---------------|


Fun song to play,just listen for timing