Alice In Chains - Get Born Again Chords & Tabs

 

Get Born Again Chords & Tabs

Alice In Chains Chords & Tabs

Version: 5 Type: Tab 0 ratings
1 star 2 stars 3 stars 4 stars 5 stars
comments

Get Born Again Tab

   
“Get Born Again”, Alice In Chains, Nothing’s Safe – The Best Of 
Box, 1999, Columbia Records, Track 1

Lyrics By: Layne Staley
Music By: Jerry Cantrell

Tuning: (Low) Db, Ab, Db, Gb, Bb, (High) Eb (Drop Db/C#; Drop D down half-step)

Intro/Verse:
E------------------------------------------------------------------|
B------------------------------------------------------------------|
G—4--4--4/-5-5---4--4--4/7-7---4--4--4/-5-5-5-5-5-5----------------|
D-2--2--2/--3--2--2--2/---5--2--2--2-/--3-3-3-3-3-3----------------|
A------------------------------------------------------------------|
D------------------------------------------------------------------|


Pre Chorus*:
E-------------------------------------------------------------------|
B-------------------------------------------------------------------|
G-------------------------------------------------------------------|
D-3-2-2-2-2-----3-2-2-2-2-------------------------------------------|
A-3-2-2-2-2-----3-2-2-2-2-------------------------------------------|
D-3-2-2-2-2-----3-2-2-2-2-------------------------------------------|
 (PM)           (Before Chorus, do not palm mute)
[ Tab from: http://www.guitartabs.cc/tabs/a/alice_in_chains/get_born_again_tab_ver_5.html ]
Chorus:
E-------------------------------------------------------------------|
B-------------------------------------------------------------------|
G-7-2-3-4---7-2-5-4-------------------------------------------------|
D-7-2-3-4---7-2-5-4-------------------------------------------------|
A-5-0-1-2---5-0-3-2-------------------------------------------------|
D-------------------------------------------------------------------|

First Solo:
E----12----------------------------------------------------|
A-12----12-------------------------------------------------|
G---------12-10-12-12^-12-10-12-10-9-9h10-9----------------|
D------------------------------------------10-12-12^-12-10-|
A----------------------------------------------------------|
D----------------------------------------------------------|

D|----------------|
A|-10s12----------|
D|----------------|

(The other solo? That’s up to you.)

NOTE: You need not tune down to Drop Db (just Eb) to play the song if you decide to 
the Pre-Chorus with the following riff.

*Alternative Version To Play Pre-Chorus Riff:
E-------------------------------------------------------------------|
B-------------------------------------------------------------------|
G-------------------------------------------------------------------|
D-3-2-2-2-2-----3-2-2-2-2-------------------------------------------|
A-3-2-2-2-2-----3-2-2-2-2-------------------------------------------|
E-1-0-0-0-0-----1-0-0-0-0-------------------------------------------|
 (PM)           (Before Chorus, do not palm mute)
Comments