Alice In Chains - Get Born Again Chords & Tabs

 

Get Born Again Chords & Tabs

Alice In Chains Chords & Tabs

Version: 3 Type: Tab 0 ratings
1 star 2 stars 3 stars 4 stars 5 stars
comments

Get Born Again Tab

Get Born Again-Alice in Chains
tabbed by the all-powerful ambient narcosis

do this twice
-----------------------------------------------------------------------
-----------------------------------------------------------------------
-----9-----------------------------------------------------------------
---9---9-----9/-10----9-------9-/12\--9------9-/10----10---10---10-----
-7--------7-(7)/8---7---7--7-(7)/10\7---7-7-(7)/8---8----8----8----8/7-
-----------------------------------------------------------------------
[ Tab from: http://www.guitartabs.cc/tabs/a/alice_in_chains/get_born_again_tab_ver_3.html ]
then comes
-----------------------------------------------------------------------
-----------------------------------------------------------------------
-----9-----------------------------------------------------------------
---9---9-----9-/10----9------9-/12\--9------9-/10----------------------
-7--------7-(7)/8---7---7-7-(7)/10\7---7-7-(7)/8-----------------------
-----------------------------------------------------------------------
                                                  volume swell

Then there's lot's of feedback...i think it's the open A string with the
whammy bar.

Then there's this in there
--0--------------
----0------------
-----------------
-----------------
----------0------
-----------------

then do this twice
------------------------------------------------
---3--------------3-----------------------------
---2--2--3--4-----2--2--3-----------------------
---0--2--3--2--2--0--2--3--3--2-----------------
---0--0--1--2--2--0--0--1--3--2-----------------
---------------0-----------1--0-----------------

underneath that there's this
----------------------------
---0---3--------------------
---2B----2-0---2------------
----------------------------
----------------------------
----------------------------
                   feedback

That's all i have for now i'm working on the solo and everything else.
i think the rest after the solo is just variations on the opening riff.
i'll post again when i've got the rest.
Comments