Alice In Chains - Get Born Again Chords & Tabs

 

Get Born Again Chords & Tabs

Alice In Chains Chords & Tabs

Version: 1 Type: Tab 0 ratings
1 star 2 stars 3 stars 4 stars 5 stars
comments

Get Born Again Tab

   
Song: Get Born Again
Artist: Alice in Chains
Album: Alice in Chains
Tabbed by: James Hooper


Tunning low to high- Db,Ab,Db,Gb,Bb,eb

intro
e-------------------------------------------------------------------
B-------------------------------------------------------------------
G--4-4---4/-5---4-----4/-7---4----4/-5-5-5-5-5-5--------------------
D-2-2---2-/-3--2-2---2-/-5--2-2--2-/-3-3-3-3-3-3--------------------
A-------------------------------------------------------------------
D-------------------------------------------------------------------

after doing that a couple times guitar two comes in with
[ Tab from: http://www.guitartabs.cc/tabs/a/alice_in_chains/get_born_again_tab.html ]
e-------------------------------------------------------------------
B-------------------------------------------------------------------
G-------------------------------------------------------------------
D-3-2-2-2-2---------------------------------------------------------
A-3-2-2-2-2---------------------------------------------------------
D-3-2-2-2-2---------------------------------------------------------
{palm mute}

then the chorus

e-------------------------------------------------------------------
B-------------------------------------------------------------------
G-------------------------------------------------------------------
D-7-2-3-4---7-2-3-4-------------------------------------------------
A-5-0-1-2---5-0-1-2-------------------------------------------------
D---------0---------------------------------------------------------

And that's all i've got on this song, see you next tab.
Comments