Alice In Chains - Facelift Chords & Tabs

 

Facelift Chords & Tabs

Alice In Chains Chords & Tabs

Version: 1 Type: Bass Tab 0 ratings
1 star 2 stars 3 stars 4 stars 5 stars
comments

Facelift Bass Tab

Facelift by Alice in Chains

riff1
 G|--------------------------|
 D|--------------------------|
 A|--------------------------|
Eb|-0--3h5-3--0--3h5-3-------|

riff2
 G|---------------------------|
 D|---------------------------|
 A|---------------------------|
Eb|-7/12x---------------------|

riff3
 G|---------------------------|
 D|---------------------------|
 A|---------------------------|
Eb|-12------------------------|
[ Tab from: http://www.guitartabs.cc/tabs/a/alice_in_chains/facelift_btab.html ]
riff4
 G|--------------------------|
 D|--------------------------|
 A|--------------------------|
Eb|-00-11-2-3-1-0------------|

riff5
 G|--------------------------|
 D|--------------------------|
 A|--------------------------|
Eb|-33-55-3---2--------------|


riff2 x1
riff1 x2
riff4 x8
riff1 x2
riff3 x1
riff1 x2
riff3 x1
riff4 x8
riff5 x1
riff4 x2
riff5 x1
riff4 x4
riff3 x1
riff1 x2
riff3 x1
riff1 x2
riff3 x1
riff1 x2
riff3 x1
riff4 x8
riff5 x1
riff4 x2
riff5 x1
during the solo riff4...
riff1 x2
riff3 x1
riff1 x2
riff3 x1
riff1 x2
riff3 x1
riff4 x8
riff5 x1
riff4 x2
riff5 x1
riff4 x2
riff5 x1
riff4...
Comments