Alice In Chains - Down In A Hole Chords & Tabs

 

Down In A Hole Chords & Tabs

Alice In Chains Chords & Tabs

Version: 2 Type: Tab 0 ratings
1 star 2 stars 3 stars 4 stars 5 stars
comments

Down In A Hole Tab

                      Down in a hole (Acoustic) - by Alice in Chains
	                        Tabbed by Joshua Kent

~ = vibrato or held note
x = raked note
h = hammer on
p = pull off
s = slide
b = bend string 
r = release bend 
/ = slide up 
\ = slide down 
pm= palm mute
o
o = repeat line

    Gtr I & II - Acoustic

  [Intro and 1st Verse]- {x12}  
e:-------------------3-----2~--------]
B:-0h1--------1--------3-------3-----]
G:-----2--------2--------0-------2---]
D:-------2--------2--------0-------0-]
A:-0-------0-------------------------]
E:-------------------3---------------]
      *words come in after 4th time through
  
  [Pre Chorus]- {x8}
 Gtr I -
e:-----------------3---3-3-3--3-3--]
B:-----------------3---3-3-2--2-2--] 
G:-----------------0---0-0-3--3-3--]
D:-9-10-9-7---7-0--0---0-0-0--0-0--]
A:-0~---------0-0--2---2-2---------]
E:-----------------3---3-3---------]
                                   |
                                   |
 Gtr II -                          |
e:-------------------3-----2~------]
B:-0h1--------1--------3-----3-----]
G:-----2--------2--------0-----2---]
D:-------2--------2--------0-----0-]
A:-0-------0-----------------------]
E:-------------------3-------------]
[ Tab from: http://www.guitartabs.cc/tabs/a/alice_in_chains/down_in_a_hole_tab_ver_2.html ]
  [Chorus]-
 Gtr I - 
e:--------------------0--------0-----|---------------------0--------0------]
B:----------------------3--------3---|-----------------------3--------3----]
G:o-9-10-9-7---7-0-0---------------0-|-9-10-9-7h9p7--7--0---------------0-o]
D:o-0~-------------2-------0---------|-0~---------------2-------0---------o]
A:-----------------3-------2---------|------------------3-------2----------]
E:-------------------------3---------|--------------------------3----------]
							           |
 								  |
 Gtr II -								  |
e:--0-1--0-0----------0--------0-----|-0-1--0-0------------0--------0------]
B:--3-3--3-3------------3--------3---|-3-3--3-3--------------3--------3----]
G:o-2-2--2-2---2-0-0---------------0-|-2-2--2-2---2-0-0-----------------0-o]
D:o----------------2-------0---------|----------------2---------0---------o]
A:-----------------3-------2---------|----------------3---------2----------]
E:-------------------------3---------|--------------------------3----------]

 Gtr I & II -                            
e:-2----------------------------------------]
B:-3----------------------------------------]
G:-2---1-------5--5-5-5---------------------]
D:-0---2----3--5--5-5-5-5--5-5-5-5b6r5-3-3--]
A:-----2----3--3--3-3-3-5--5-5-5-5b6r5-3-3--]
E:-----0----1-----------3--3-3-3-3b4r3-1-1--]
   I'd like to fly~
  
  {Pre Chorus}
  {Chorus}
  {Intro}
  {Chorus}-
 Gtr II - (over Gtr I during the chorus)
e:-------13--------12----------10---------------|
B:----15--------15----------13------------------|
G:-14--------14----------12-----------7h9p7-----|
D:----------------------------------------------|
A:----------------------------------------------|
E:----------------------------------------------|

  {Intro x4}
  *Strum Am Chord at end
Comments