Alice In Chains - Died Chords & Tabs

 

Died Chords & Tabs

Alice In Chains Chords & Tabs

Version: 2 Type: Tab 0 ratings
1 star 2 stars 3 stars 4 stars 5 stars
comments

Died Tab

#----------------------------------PLEASE NOTE---------------------------------#
#This file is the author's own work and represents their interpretation of the #
#song. You may only use this file for private study, scholarship, or research. #
#------------------------------------------------------------------------------##


Song: Died
By: Alice In Chains
Tune: "Drop D"
Author: Eduardo Zulian (sifting@convoy.com.br)
Comment: Not a difficult song, but it's kinda hard to listen to the riff line.
In the 2 last Solos in the Pre-chorus appears a third guitar, witch i'm not able to understand.
Maybe in an upgrade.
For now, that's all. Thanks.

[Intro And Verse]

E |[----------------------------------------------------------------------------------------]|
B |[----------------------------------------------------------------------------------------]|
G |[-----12--10----10--7-7-------------------7--5-------------------------------------------]|
D |[--0--12--10----10--7-7----------------0--7--5------/7-----6-6--6-6--3-3--5--0-----------]|
A |[--0--10--8-----8---5-5------------5---0--5--3------/7--5--6-5--5-5--3-3--5--0---------3-]|
D |[--0---------0-----------0-0--5h7------0---------0--/7-----6-5--5-5--3-3--5--0--0--3h5---]|

[Second part of the intro]
[ Tab from: http://www.guitartabs.cc/tabs/a/alice_in_chains/died_tab_ver_2.html ]
E |[----------------------------------------------------------------------------------------]|
B |[----------------------------------------------------------------------------------------]|
G |[-----12--10----10--7-7-------------------7--5-------------------------------------------]|
D |[--0--12--10----10--7-7----------------0--7--5------/7-----6-6--6-6--3-3--5--0--5-5/6-5--]|
A |[--0--10--8-----8---5-5------------5---0--5--3------/7--5--6-5--5-5--3-3--5--0--5-5/6-5--]|
D |[--0---------0-----------0-0--5h7------0---------0--/7-----6-5--5-5--3-3--5--0--5 5/6 5--]|

[Riff in the Pre-Chorus]

E |[---------------------]|
B |[---------------------]|
G |[---------------------]|
D |[-3-3-3-3--6-6--2-2-2-]|
A |[-3-3-3-3--6-6--2-2-2-]|
D |[-3-3-3-3--6-6--2-2-2-]|
   |=========PM==========|


[Solo in the Pre-Chorus]

E |[--5~~-8-7~~-5-4-5~~--8-7-4~~]|
B |[----------------------------]|
G |[----------------------------]|
D |[----------------------------]|
A |[----------------------------]|
D |[----------------------------]|

[Chorus (Riff) > Pretty hard to unterstand]

E |[-------------------]|
B |[-------------------]|
G |[-------------------]|
D |[-1-1--1~--------0~~]|
A |[-1-1--1~-----1--0~~]|
D |[-1-1--1~--/3----0~~]|
   |=PM=|

[Chorus (Solo)]

E |[-------------5~~~---------------5^-]|
B |[--6^--6-4-3------3/4--6^--6-4-3----]|
G |[-----------------------------------]|
D |[-----------------------------------]|
A |[-----------------------------------]|
D |[-----------------------------------]|

Comments: sifting@convoy.com.br
Comments