Alice In Chains - Bleed The Freak Chords & Tabs

 

Bleed The Freak Chords & Tabs

Alice In Chains Chords & Tabs

Version: 1 Type: Tab 0 ratings
1 star 2 stars 3 stars 4 stars 5 stars
comments

Bleed The Freak Tab

Bleed the Freak - Alice in Chains
Revised/Outro by: TheInquisitions@yahoo.com
Origionaly Tabbed by: Travis Fitch (fitch@eng2.eng.monash.edu.au)

Standard Tuning (E)

Intro:

----------------------------------------------------
----------------------------------------------------
--------4--------4-----4-------------4--------4-----
-----4--------4-------------------4-----4--------4--
--2-----------------0----------2-----------2--------
-----------3----------------0-----------------------


---------------------------------------------------
---------------------------------------------------
--------4--------4-----4------------------4-----4--
-----4--------4------------------------------4-----
--2-----------------0-------0----------2-----------
-----------3-------------------3--0----------------
                                                    
---------------------------------------------------
---------------------------------------------------
--------4--------4--2--4---2--0----------4---------
-----4--------4------------------2----------4------
--2-----------------------------------2--------2---
-----------3---------------------------------------



----------------------------------------------------
----------------------------------------------------
--------4--------4-----4-------------4--------4-----
-----4--------4-------------------4-----4--------4--
--2-----------------0----------2-----------2--------
-----------3----------------0-----------------------
                                                     
----------------------------------------------------
----------------------------------------------------
--------4--------4-----4-------------4--------4-----
-----4--------4-------------------4-----4--------4--
--2-----------------0----------2-----------2--------
-----------3----------------0-----------------------

---------------------------------------------------
---------------------------------------------------
--------4--------4-----4------------------4--------
-----4--------4------------------------------4-----
--2-----------------0-------0----------2--------2--
-----------3-------------------3--0----------------
                                                   
---------------------------------------------------
---------------------------------------------------
--------4--------4--2--4----2--0----------4--------
-----4--------4-------------------2----------4-----
--2------------------------------------2--------2--
-----------3---------------------------------------

Song beginning:

----------------------------------------------------
----------------------------------------------------
--------4--------4-----4-------------4--------4-----
-----4--------4-------------------2-----4--------4--
--2-----------------0----------2-----------2--------
-----------3----------------0-----------------------

---------------------------------------------------
---------------------------------------------------
--------4--------4-----4---------------------4-----
-----4--------4---------------------------4-----4--
--2-----------------0-------0----------2-----------
-----------3-------------------3--0----------------

Verse:

----------------------------------------------------
----------------------------------------------------
--------4--------4-----4-------------4--------4-----
-----4--------4-------------------4-----4--------4--
--2-----------------0----------2-----------2--------
-----------3----------------0-----------------------


--------------------------------------------------
--------------------------------------------------
--------4--------4-----4--------------------------
-----4--------4-----------------------------------
--2-----------------0-------0---------------------
-----------3-------------------3--0---------------


Chorus:
   
------------------------------------------------------
------------------------------------------------------
--4-------------2---2---------------------------------
--4------5------2---2---2------2----------------------
--2------5------0---0---2------2----------------------
---------3--------------0------0----------------------

------------------------------------------------
------------------------------------------------
--4-------------2---2---------------------------
--4------5------2---2--------2------------------
--2------5------0---0--------2------------------
---------3---------------3---0------------------

-----------------------------------------------------
-----------------------------------------------------
--4-------------2---2--------------------------------
--4------5------2---2---2----------------------------
--2------5------0---0---2----------------------------
---------3--------------0----------------------------

------------------------------------------------
------------------------------------------------
--4-------------2---2---------------------------
--4------5------2---2--------2------------------
--2------5------0---0--------2------------------
---------3---------------3---0------------------
[ Tab from: http://www.guitartabs.cc/tabs/a/alice_in_chains/bleed_the_freak_tab.html ]
--------------------------------------------------------------------
--------------------------------------------------------------------
--------------------------------------------------------------------
------------------------3---4---3---4-------------------------------
------------------------1----2---1---2---3---4---3----3----3--------
---------------------------------------------1---2---1----1----1----

----------------------------------------
----------------------------------------
----------------------------------------
-------------------------------------3--
--3----3----3----3----3----3----3----1--
--1----1----1----1----1----1----1-------

----------------------------------------
----------------------------------------
----------------------------------------
--4---3---4-----------------------------
--2---1---2----3---3---3----3----3------
-----------------1---2---1----1----1----

----------------------------------------
----------------------------------------
----------------------------------------
-------------------------------------3--
--3----3----3----3----3----3----3----1--
--1----1----1----1----1----1----1-------

----------------------------------------
----------------------------------------
----------------------------------------
--4---3---4-----------------------------
--2---1---2----3---4---3----3----3------
-----------------1---2---1----1----1----

----------------------------------------
----------------------------------------
----------------------------------------
-------------------------------------3--
--3----3----3----3----3----3----3----1--
--1----1----1----1----1----1----1-------

------------------------------------------------------------------------
------------------------------------------------------------------------
------------------------------------------------------------------------
--4---3---4--------------------------------------------------7----------
--2---1---2----3---4---3----3----3----3----3----3----3-----5----7-------
-----------------1---2---1----1----1----1----1----1----1----------5-----

-----------------------------------------------------
-----------------------------------------------------
--4-------------2---2--------------------------------
--4------5------2---2---2----------------------------
--2------5------0---0---2----------------------------
---------3--------------0----------------------------

----------------------------------------------
----------------------------------------------
--4-------------2---2-------------------------
--4------5------2---2--------2----------------
--2------5------0---0--------2----------------
---------3---------------3---0----------------

-----------------------------------------------------
-----------------------------------------------------
--4-------------2---2--------------------------------
--4------5------2---2---2----------------------------
--2------5------0---0---2----------------------------
---------3--------------0----------------------------

----------------------------------------------------------------------
----------------------------------------------------------------------
--4-----------------------------------------3---2---------------------
--4------5------2---2--------2--------------3---2-------2-------------
--2------5------0---0--------2--------------1---0-------2-------------
---------3---------------3---0----------------------3---0-------------

------------------------------------------
------------------------------------------
------------------------------------------
--4---3---4-------------------------------
--2---1---2---3---4---3----3----3---------
-----------------1---2---1----1----1------

----------------------------------------
----------------------------------------
----------------------------------------
-------------------------------------3--
--3----3----3----3----3----3----3----1--
--1----1----1----1----1----1----1-------

------------------------------------------
------------------------------------------
------------------------------------------
--4---3---4-------------------------------
--2---1---2----3---4---3----3----3--------
-----------------1---2---1----1----1------

----------------------------------------
----------------------------------------
----------------------------------------
-------------------------------------3--
--3----3----3----3----3----3----3----1--
--1----1----1----1----1----1----1-------

-------------------------------------------
-------------------------------------------
-------------------------------------------
--4---3---4--------------------------------
--2---1---2----3---4---3----3----3---------
-----------------1---2---1----1----1-------

----------------------------------------
----------------------------------------
----------------------------------------
-------------------------------------3--
--3----3----3----3----3----3----3----1--
--1----1----1----1----1----1----1-------
     
Outro:
                      
-----------------------------------------------------------------------
-----------------------------------------------------------------------
-----------------------------------------------------------------------
--4---3---4--------------------------------------------------7---------
--2---1---2----3---4---3----3----3----3----3----3----3-----5----7------
-----------------1---2---1----1----1----1----1----1----1----------5----


    
Comments