Alice In Chains - Angry Chair Chords & Tabs

 

Angry Chair Chords & Tabs

Alice In Chains Chords & Tabs

Version: 1 Type: Tab 3 ratings
1 star 2 stars 3 stars 4 stars 5 stars
comments

Angry Chair Tab

AIC - ANGRY CHAIR
TUNED 1/2 OR 1 WHOLE STEP UP.IM NOT SURE WHICH. 
INTRO/VERSE RIFF
-----------------------------
-----------------------------
----------------------------
------------------------------
-----2---3-----------------------
--0----0-------------------------
THEN..........................
---------------------------------
----------------------------------
-------------------------------------
-3-3-3-3--2-2----8-------------------------
-3-3-3-3--2-2----8---------------------------
-1-1-1-1--0-0----6------------------------
CHORUS
-----------------------------------------------------------------
----------------------------------------------------------------
----------------------------------------------------------------
-7-7-7-9-9-9-4-4-4-5-5-5--7--9--2-----------------------------
-7-7-7-9-9-9-4-4-4-5-5-5--7--9--2-----------------------------
-5-5-5-7-7-7-2-2-2-3-3-3--5--7--0-----------------------------
THERES A WIERD BEND AFTER EACH TIME YOU DO THAT. YOULL HAVE 2 WORK
THAT OUT ON YOUR OWN.ANYWAY THATS THE WHOLE THING.AIC RULES!!!!!



[ Tab from: http://www.guitartabs.cc/tabs/a/alice_in_chains/angry_chair_tab.html ]
Comments