Alice In Chains - Again Chords & Tabs

 

Again Chords & Tabs

Alice In Chains Chords & Tabs

Version: 2 Type: Tab 0 ratings
1 star 2 stars 3 stars 4 stars 5 stars
comments

Again Tab

If you’re like me, you looked high and low for this tab to find the 
same one at every site.  The only problem is that tab is incorrect. 
Here’s mine.  The numbers across the bottom are for counting purposes.

Verse:
G-------|-----7-----------------------6--|--------------------------------------------
D--4--4-|-5---7---5---5---5---5---5---6--|--4---4---4---4---4---4---4---4--4
A--4--4-|-5---5---5---5---5---5---5---4--|--4---4---4---4---4---4---4---4--4
E--2--2-|-3---5---3---3---3---3---3---4--|--2---2---2---2---2---2---2---2--2
p.m.
   +  a   1   +   2   +   3   +   4   +     1   +   2   +   3   +   4   +  a

Repeat these two measures many times 
(but not the two pickup notes, of course).

Chorus:
G--------5-----7---5---------|--------------------------------------
D--5-----5-----7---5-----4---|---4---4---4---4---4---4---4
A--5-----3-----5---3-----4---|---4---4---4---4---4---4---4
E--3-----3-----5---3-----2---|---2---2---2---2---2---2---2
[ Tab from: http://www.guitartabs.cc/tabs/a/alice_in_chains/again_tab_ver_2.html ]
   1     2     3  (+  4 (+   1)  +   2   +   3   +   4   +

Also repeat as needed.


Bridge:

E---------------3----6-----------------------
B---------------------------------------------
G-------------------------------6----6--------
D--5---3---5---------------4----6----6--------
A--5---3---5---------------4----4----4---------
E--3---1---3---------------2----4----4---------

   1   +   2    +    3     +    4    +

Bridge Guitar 2:
   
G------11bend---11^--11^--11^--11^--11--|-------10-----------------|---------------|--
D---------------------------------------|------------------10------|----10^--------|--
A---------------------------------------|--------------------------|---------------|--
E---------------------------------------|--------------------------|---------------|--
 rest  (+   2)  +    3    +    4   (+     1)   (+  3  +)   4            (1  2  3  4)    
rest 1 more measure
and repeat  
if you have requests or comments email me at ellicotto@yahoo.com 
Comments