Alice Dj - Better Off Alone Chords & Tabs

 

Better Off Alone Chords & Tabs

Alice Dj Chords & Tabs

Version: 1 Type: Tab 1 rating
1 star 2 stars 3 stars 4 stars 5 stars
comments

Better Off Alone Tab

e-|-------|-3-3-0-|--------|-1-1-0-|
B-|-1-1---|-------|-1-1----|-------|
G-|-----2-|-------|-----2--|-------|
D-|-------|-------|--------|-------|
A-|-------|-------|--------|-------|
E-|-------|-------|--------|-------|
[ Tab from: http://www.guitartabs.cc/tabs/a/alice_dj/better_off_alone_tab.html ]
e-|-------------3-3-0-------------1-1-0
B-|-1-1---1-0---------1-1---1-0--------
G-|-----0-----0-----------0-----0------
D-|------------------------------------
A-|------------------------------------
E-|------------------------------------

e-|-------------3-3-0---------------------1-1-0
B-|-1-1---1-0---------1-1---1-0----------------
G-|-----0-----0-----------0-------------0------
D-|--------------------------------------------
A-|--------------------------------------------
E-|--------------------------------------------
                                  ^^^
                       Pause here for 3 seconds
Comments