Alice Cooper - Schools Out Chords & Tabs

 

Schools Out Chords & Tabs

Alice Cooper Chords & Tabs

Version: 1 Type: Tab 2 ratings
1 star 2 stars 3 stars 4 stars 5 stars
comments

Schools Out Tab

SCHOOLS OUT!


  Guitar one: 
E-|---------------------------------------------------------------------------| 
B-|----------14------------12------------14-----------------------------------| 
G-|----------14------------12------------14--12~~-----------------------------| 
D-|----------14------------12------------14----------14p13p12-----------------| 
A-|--14--14--------14--14--------14--14---------------------------------------| 
E-|--12--12--------12--12--------12--12---------------------------------------|

  Guitar one: 
E-|---------------------------------------------------------------------------| 
B-|---------------------------------------------------------------------------| 
G-|----------14------------12------------14----------------------------14-----| 
D-|----------14------------12------------14--12----14p13p12------------14-----| 
A-|--14--14--------14--14--------14--14------------------------14--14---------| 
E-|--12--12--------12--12--------12--12------------------------12--12---------|


 Guitar two:                                                                  
E-|--0---------------------------------------------------------3--------------| 
B-|--0---------------------------------------------------------3--------------| 
G-|--x---------------------------------------------------------1--------------| 
D-|--2---------------------------------------------------------2--------------| 
A-|--2---------------------------------------------------------2--------------| 
E-|--0---------------------------------------------------------0--------------|

  Guitar one: 
E-|----------------------------------------------|----------------------------| 
B-|----------------------------------------------|----------14------------12--| 
G-|----------12------------14--12~~--------------|----------14------------12--| 
D-|----------12------------14----------14p13p12--|----------14------------12--| 
A-|--14--14--------14--14------------------------|--14--14--------14--14------| 
E-|--12--12--------12--12------------------------|--12--12--------12--12------| 
                                                                              
  Guitar two:                                                                  
E-|----------------------------------------------|----------------------------| 
B-|----------------------------------------------|--3-------------------------| 
G-|----------------------------------------------|--2-------------------------| 
D-|----------------------------------------------|--2-------------------------| 
A-|----------------------------------------------|----------------------------| 
E-|----------------------------------------------|----------------------------|

  Guitar one: 
E-|--------------------------------|------------------------------------------| 
B-|--------------------------------|------------------------------------------| 
G-|----------14--12~~--------------|----------14------------12----------------| 
D-|----------14----------14p13p12--|----------14------------12----------------| 
A-|--14--14------------------------|--14--14--------14--14--------14--14------| 
E-|--12--12------------------------|--12--12--------12--12--------12--12------|

  Guitar one: 
E-|------------------------|--------------------------------------------------| 
B-|------------------------|--------------------------------------------------| 
G-|--14--12~~--------------|----------14------------12------------14--12------|this line X4 
D-|--14------------14\-----|----------14------------12------------14------14\-| 
A-|------------------------|--14--14--------14--14--------14--14--------------| 
E-|------------------------|--12--12--------12--12--------12--12--------------|

   Guitar one: 
E-|----------8-----8----8--8-----8----8--8------10--11-------9-----9----9-----| 
B-|----------8-----8----8--8-----8----8--8------10--11------11----11---11-----| 
G-|----------9-----9----9--9-----9----9--9------11--12------12----12---12-----| 
D-|---------------------------------------------------------------------------| 
A-|---------------------------------------------------------------------------| 
E-|---------------------------------------------------------------------------| 
                                                                              
  Guitar two:                                                                  
E-|---------------------------------------------------------------------------| 
B-|----------8-----8----8---8----8----8---8-----10--11------11----11---11-----| 
G-|----------9-----9----9---9----9----9---9-----11--12------12----12---12-----| 
D-|---------10----10---10--10---10---10--10-----12--13------13----13---13-----| 
A-|---------10----10---10--10---10---10--10-----12--13------13----13---13-----| 
E-|----------8-----8----8---8----8----8---8-----10--11------11----11---11-----|

  Guitar one: 
E-|---9-----9---9-----------| 
B-|--11----11--11-----------| 
G-|--12----12--12----0/-----| 
D-|-------------------------| 
A-|-------------------------| 
E-|-------------------------| 
                            
  Guitar two:                
E-|-------------------------| 
B-|--11----11--11----11\----| 
G-|--12----12--12----12\----| 
D-|--13----13--13----13\----| 
A-|--13----13--13----13\----| 
E-|--11----11--11----11\----|

  Guitar one:                             
E-|---------------------------------------------------------------------------| 
B-|-----------------------------------3---x-x-x-x---x-x-x-x---x-x-x-x---------| 
G-|-----------------------------------3---x-x-x-x---x-x-x-x---x-x-x-x---------| 
D-|------------------8---10--3--5-----5---x-x-x-x---x-x-x-x---x-x-x-x---------| 
A-|--5------5--5--5--8---10--3--5---------------------------------------------| 
E-|--3------3--3--3--6----8--1--3---------------------------------------------|

  Guitar two: 
E-|-----------| 
B-|--5--------| 
G-|--3b-------| 
D-|-----------| 
A-|-----------| 
E-|-----------|

  Guitar one: 
E-|----------------------------3----------------------------------------------| 
B-|----------------------------3---x-x-x-x---x-x-x-x---x-x-x-x----------------| 
G-|----------------------------3---x-x-x-x---x-x-x-x---x-x-x-x----------------| 
D-|--5--------8---10--3--5-----5---x-x-x-x---x-x-x-x---x-x-x-x----------------| 
A-|--5--------8---10--3--5----------------------------------------------------| 
E-|--3--------6----8--1--3----------------------------------------------------|

  Guitar two: 
E-|--------------------| 
B-|--------------------| 
G-|--5b--5--3~~~~~-----| 
D-|--------------------| 
A-|--------------------| 
E-|--------------------|

  Guitar one: 
E-|----------------------------3----------------------------------------------| 
B-|----------------------------3---x-x-x-x---x-x-x-x---x-x-x-x----------------| 
G-|----------------------------3---x-x-x-x---x-x-x-x---x-x-x-x----------------| 
D-|--5--------8---10--3--5-----5---x-x-x-x---x-x-x-x---x-x-x-x----------------| 
A-|--5--------8---10--3--5----------------------------------------------------| 
E-|--3--------6----8--1--3----------------------------------------------------|

 Guitar Two: 
E-|--15-----15-15-15---15-----15--15--15--15---| 
B-|--18b---------------18b----18b-----18--18b--| 
G-|--------------------------------------------| 
D-|--------------------------------------------| 
A-|--------------------------------------------| 
E-|--------------------------------------------|

   Guitar one: 
E-|-------------------------------------------------1-------------------------| 
B-|-------------------------------------------------1-------------------------| 
G-|--2---------------------2------------------------2-------------------------| 
D-|--2---------------------5------------------------3-------------------------| 
A-|--0---------------------0------------------------3-------------------------| 
E-|-------------------------------------------------1-------------------------|
  
  guitar two: 
E-|--------------| 
B-|--10----------| 
G-|--12b---------| 
D-|--------------| 
A-|--------------| 
E-|--------------|

 Guitar one: 
E-|--12---------12--12--12----------12----------------------------------------| 
B-|--15b--------15b-----15b---------15b--15p12--------------------------------| 
G-|---------------------------------------------------------------------------| 
D-|---------------------------------------------14p12--14--14b~~--------------| 
A-|---------------------------------------------------------------------------| 
E-|---------------------------------------------------------------------------|


  Guitar two: 
E-|---------------------------------------------------------------------------| 
B-|----------14------------12------------14-----------------------------------| 
G-|----------14------------12------------14--12~~-----------------------------| 
D-|----------14------------12------------14----------14p13p12-----------------| 
A-|--14--14--------14--14--------14--14---------------------------------------| 
E-|--12--12--------12--12--------12--12---------------------------------------|

  Guitar one: 
E-|--10/12--12--10/12--12--10/12--12--10/12-----12--11--10--9--8--7-----------| 
B-|--10/12--12--10/12--12--10/12--12--10/12-----12--11--10--9--8--7-----------| 
G-|---------------------------------------------------------------------------| 
D-|---------------------------------------------------------------------------| 
A-|---------------------------------------------------------------------------| 
E-|---------------------------------------------------------------------------|
[ Tab from: http://www.guitartabs.cc/tabs/a/alice_cooper/schools_out_tab.html ]
  Guitar two: 
E-|---------------------------------------------------------------------------| 
B-|----------14------------12------------14-----------------------------------| 
G-|----------14------------12------------14--12~~-----------------------------| 
D-|----------14------------12------------14----------14p13p12-----------------| 
A-|--14--14--------14--14--------14--14---------------------------------------| 
E-|--12--12--------12--12--------12--12---------------------------------------|

 Guitar one: 
E-|---------12--12~~~---------15b--rb-p12------12~~~----------------------| 
B-|--10/12-------------------------------------15-----------------------------| 
G-|---------------------------------------------------------------------------| 
D-|---------------------------------------------------------------------------| 
A-|---------------------------------------------------------------------------| 
E-|---------------------------------------------------------------------------|

 Guitar two: 
E-|---------------------------------------------------------------------------| 
B-|----------14------------12------------14-----------------------------------| 
G-|----------14------------12------------14--12~~-----------------------------| 
D-|----------14------------12------------14----------14p13p12-----------------| 
A-|--14--14--------14--14--------14--14---------------------------------------| 
E-|--12--12--------12--12--------12--12---------------------------------------|

 Guitar one: 
E-|---------------------------------------------------------------------------| 
B-|----------14------------12------------14-----------------------------------| 
G-|----------14------------12------------14--12~~-----------------------------| 
D-|----------14------------12------------14----------14p13p12-----------------| 
A-|--14--14--------14--14--------14--14---------------------------------------| 
E-|--12--12--------12--12--------12--12---------------------------------------|

  Guitar one: 
E-|---------------------------------------------------------------------------| 
B-|----------------------------13b--13b--rb-p11------11--11~~~~-----------| 
G-|--------------------------------------------------12-----------------------| 
D-|---------------------------------------------------------------------------| 
A-|---------------------------------------------------------------------------| 
E-|---------------------------------------------------------------------------|

  Guitar two: 
E-|---------------------------------------------------------------------------| 
B-|-------------------------------x-x-x-x---x-x-x-x---x-x-x-x-----------------| 
G-|-------------------------------x-x-x-x---x-x-x-x---x-x-x-x-----------------| 
D-|-------------------------------x-x-x-x---x-x-x-x---x-x-x-x-----------------| 
A-|---------------------------------------------------------------------------| 
E-|---------------------------------------------------------------------------|
  Guitar one: 
E-|-------------------------20b---20b---20b---20b---20p18-----| 
B-|---------------------------------------------------------------------------| 
G-|---------------------------------------------------------------------------| 
D-|---------------------------------------------------------------------------| 
A-|---------------------------------------------------------------------------| 
E-|---------------------------------------------------------------------------|
  Guitar two: 
E-|---------------------------------------------------------------------------| 
B-|-------------------------------x-x-x-x---x-x-x-x---x-x-x-x-----------------| 
G-|-------------------------------x-x-x-x---x-x-x-x---x-x-x-x-----------------| 
D-|-------------------------------x-x-x-x---x-x-x-x---x-x-x-x-----------------| 
A-|---------------------------------------------------------------------------| 
E-|---------------------------------------------------------------------------|
  Guitar one:
E-|------18-------------------------------------------------------------------| 
B-|--20------20~~~-----------8------------------------------------------------| 
G-|-------------------------10b-----------------------------------------------| 
D-|---------------------------------------------------------------------------| 
A-|---------------------------------------------------------------------------| 
E-|---------------------------------------------------------------------------| 
                                                                              
  Guitar two:                                                                  
E-|---------------------------------------------------------------------------| 
B-|---------------------------------------------------------------------------| 
G-|----------------------------------2--------5-------------------------------| 
D-|--------------------------5-------3--------5-------------------------------| 
A-|--------------------------5-------3--------3-------------------------------| 
E-|--------------------------3-------1--------3-------------------------------|

  Guitar one:
E-|---------------------------------------------------------------------------| 
B-|---------------------------------5--8b-------------------------------------| 
G-|---------------------------------------------------------------------------| 
D-|---------------------------------------------------------------------------| 
A-|---------------------------------------------------------------------------| 
E-|---------------------------------------------------------------------------| 
  
    
 
   Guitar one: 
E-|--10-----------------------------------------------------------------------| 
B-|---8-------------------------------13b-------------------------------------| 
G-|--11-----------------------------------------------------------------------| 
D-|---------------------------------------------------------------------------| 
A-|---------------------------------------------------------------------------| 
E-|---------------------------------------------------------------------------|

  Guitar one: 
E-|-------------------------------15-------15-------15-------15-------15------| 
B-|--------------------------15-------15-------15-------15-------15-------15-\| 
G-|--------------------------17b------17b------17b------17b------17b------17b\| 
D-|---------------------------------------------------------------------------| 
A-|---------------------------------------------------------------------------| 
E-|---------------------------------------------------------------------------| 

  Guitar two: 
E-|---------------------------------------------------------------------------| 
B-|-------------------------------x-x-x-x---x-x-x-x---x-x-x-x-----------------| 
G-|-------------------------------x-x-x-x---x-x-x-x---x-x-x-x-----------------| 
D-|-------------------------------x-x-x-x---x-x-x-x---x-x-x-x-----------------| 
A-|---------------------------------------------------------------------------| 
E-|---------------------------------------------------------------------------|

  Guitar one: 
E-|---------------------------------------------------------------------------| 
B-|---------------------------------------------------------------------------| 
G-|---------------------------12b--12b--12p10------10--12----12~~~~~----------| 
D-|--------------------------------------------12-----------------------------| 
A-|---------------------------------------------------------------------------| 
E-|---------------------------------------------------------------------------|

 Guitar two: 
E-|---------------------------------------------------------------------------| 
B-|-------------------------------x-x-x-x---x-x-x-x---x-x-x-x-----------------| 
G-|-------------------------------x-x-x-x---x-x-x-x---x-x-x-x-----------------| 
D-|-------------------------------x-x-x-x---x-x-x-x---x-x-x-x-----------------| 
A-|---------------------------------------------------------------------------| 
E-|---------------------------------------------------------------------------|

  Guitar one: 
E-|---------------------------20b~~~--20b~~~----20b~~---rb--18------18----| 
B-|-----------------------------------------------------------------20------20| 
G-|---------------------------------------------------------------------------| 
D-|---------------------------------------------------------------------------| 
A-|---------------------------------------------------------------------------| 
E-|---------------------------------------------------------------------------|

 Guitar two: 
E-|---------------------------------------------------------------------------| 
B-|-------------------------------x-x-x-x---x-x-x-x---x-x-x-x-----------------| 
G-|-------------------------------x-x-x-x---x-x-x-x---x-x-x-x-----------------| 
D-|-------------------------------x-x-x-x---x-x-x-x---x-x-x-x-----------------| 
A-|---------------------------------------------------------------------------| 
E-|---------------------------------------------------------------------------|

    Guitar one: 
E-|---------------------------------------------------------------------------| 
B-|---------------------------------------------------------------------------| 
G-|-----------10b-----10b-----------------------------------------------------| 
D-|---------------------------------------------------------------------------| 
A-|---------------------------------------------------------------------------| 
E-|---------------------------------------------------------------------------| 
                                                                              
  Guitar two:                                                                  
E-|---------------------------------------------------------------------------| 
B-|--11-----------10----------------------------------------------------------| 
G-|--12-----------10-----5----------------------------------------------------| 
D-|--12-----------10-----5----------------------------------------------------| 
A-|--10------------8-----3----------------------------------------------------| 
E-|----------------------3----------------------------------------------------| 


                WOOOOOOOOOOOOOOOOOOH!!!!! ROCK ON !!! 
Comments