Alice Cooper - Poison Chords & Tabs

 

Poison Chords & Tabs

Alice Cooper Chords & Tabs

Version: 2 Type: Bass Tab 0 ratings
1 star 2 stars 3 stars 4 stars 5 stars
comments

Poison Bass Tab

   
#----------------------------------PLEASE NOTE---------------------------------#
#This file is the author's own work and represents their interpretation of the #
#song. You may only use this file for private study, scholarship, or research. #
#------------------------------------------------------------------------------##

                                    Poison Basstab

I did this tab because I don't think the other one was right. This is my first tab,
and I hope you like it! Made by: XoDuZ (I won't give out my e-mail here because i'm
paranoid) =)

 
 Intro (The first 4 notes is only played in the beginning)
|-----------------------------------------|
|-----------------------------------------|
|-5-5----------5-5-----------1---------3--|
|-----------------------------------------|


|-----------------------------------|
|--------3--------------------------|
|-5-------------5-3-1----------3----|
|-----------------------------------|


|------------------------------------------|
|--------3---------------------------------|
|-5-------------5-3-1----------3-------5---|
|------------------------------------------|


|----------------------------------|
|-3--------------------------------|
|------5-3-1------------------5----|
|----------------------------------|

 Verse (Played when Alice has sung "You Cru-el", or when you hear the 3 bass drum beat)
|-----------------------------------------|
|-----------------------------------------|
|-1------------------3--------------------|
|-----------3----------------5-------1----|


|--------------------------------------------------|
|--------------------------------------------------|
|-1-------1------1--/5-5-5-5-5-5-5-5-5-5-5-5-5-5\--|
|--------------------------------------------------|
[ Tab from: http://www.guitartabs.cc/tabs/a/alice_cooper/poison_btab_ver_2.html ]
 Pre Chorus
|---------------------------------------|
|-5-------------------------------------|
|----------6--------1----------------3--|
|----------------------------3----------|


|-------------------------------------|
|-------------------------------------|
|---------6---------------------------|
|-6--------------8-------7-------3----|


|--------------------------------------|
|---------------------------------3----|
|-3-------------3-4-5------1-----------|
|---------5----------------------------|


|----------|
|----------|
|-3---4----|
|----------|

 Chorus
|-------------------------------------|
|---------------------3-2-3-----------|
|-5-3-5-1---1--1------------3--3-4----|
|-------------------------------------|

 Bridge
|-----------------------------------------------------|
|-5---5--5--------------------------------------------|
|-------------6---6--6-----1---1--1---1--/5-5-5-5-5-5-|
|-----------------------------------------------------|


|---------------------|
|---------------------|
|-5-5-5-5-5-5-5-5\----|
|---------------------|

How to play:
Intro 3x
Verse 1x
Pre Chorus 1x
Chorus 4x (last one, play a Bm before the a)
Verse 1x
Pre Chorus 1x
Chorus 4x
Intro 3x
Bridge 1x
Pre Chorus 1x
Chorus 4x
Then you play lots of 3's on the D-string)
Chorus 12x, then fading out

Enjoy!

Tablature Legend
----------------
 h   - hammer-on
 p   - pull-off
 b   - bend
 pb  - pre-bend
 r   - bend release (if no number after the r, then release immediately)
 /\  - slide into or out of (from/to "nowhere")


***************************************************************************************
* Generated using Power Tab Editor by Brad Larsen - http://powertab.guitarnetwork.org *
***************************************************************************************
Comments