Alice Cooper - Poison Chords & Tabs

 

Poison Chords & Tabs

Alice Cooper Chords & Tabs

Version: 1 Type: Bass Tab 0 ratings
1 star 2 stars 3 stars 4 stars 5 stars
comments

Poison Bass Tab

   
Poison by Alice Cooper
Standard Tuning

(Intro)
G:-----------|
D:-----------|
A:5-5----5-5-|
E:-----------|

(During Solo)
G:-----------------|
D:-----------------|
A:--5--8--5---5--8-|
E:6---------6------|

G:----------------------|
D:----------------------|
A:1--1-----------1--1-5-|
E:-----1-0--3--3--------|

G:---------------------------------------|
D:-----1------------1--------------------|
A:1-------1---3-------1------3---5---3---|
E:---1-----------4------5--1---3---6---3-|

(Chorus)
G:---------------|
D:---2-3---3-2---|  X4
A:5------1-------|
E:---------------|

G:------------|
D:------------|
A:1~----------|
E:------------|

G:------------------------|
D:------------------------|
A:5-1---3-5---1-5-5-5-5-5-|
E:----1-----1-------------|
[ Tab from: http://www.guitartabs.cc/tabs/a/alice_cooper/poison_btab.html ]
G:---------------------------------------|
D:-----1------------1--------------------|
A:1-------1---3-------1------3---5---3---|
E:---1-----------4------5--1---3---6---3-|

G:---------------|
D:---2-3---3-2---|  X4
A:5------1-------|
E:---------------|

G:------------|
D:------------|
A:1~----------|
E:------------|

(During Solo)
G:------------------------|
D:------------------------|
A:5-1---3-5---1-5-5-5-5-5-|
E:----1-----1-------------|

(Bridge)
G:----------------|
D:----------------|
A:5-----5-5-5-5-5-|
E:--6-1-----------|

G:---------------------------------------|
D:-----1------------1--------------------|
A:1-------1---3-------1------3---5---3---|
E:---1-----------4------5--1---3---6---3-|

(Chorus)
G:---------------|
D:---2-3---3-2---|  X4
A:5------1-------|
E:---------------|

G:------------|
D:------------|
A:5-5-5-5-5-5-|
E:------------|

G:------------------|
D:---2-3---3-2  X12-|
A:5------1----------|
E:------------------|

Thanks, please rate after you learn it.
Tabbed by:
_TheBassist01_
Comments