Alice Cooper - Im Eighteen Chords & Tabs

 

Im Eighteen Chords & Tabs

Alice Cooper Chords & Tabs

Version: 1 Type: Bass Tab 0 ratings
1 star 2 stars 3 stars 4 stars 5 stars
comments

Im Eighteen Bass Tab

   
I'm 18 - Alice Cooper

The bass line behind the solo isn't transcribed,
but it is basically the same as the "I've gotta get out of this place..." part. 

  Intro
G|------------------|-----------------| 
D|---9--9-----------|----5------------|  Play this twice.
A|-7--------7-6-5-4-|-3-----3/5555555-| 
E|------------------|-----------------| 

G|-------------------------------------------------------------|
D|-----------5----5-----3/5555--345/77777\---9---9\--5---------|
A|0--/7777--7-7--7-7-3---------5-----------77-7-7--33-03303/7--|
E|---------7---------------------------------------------------|

G|----------------------|---------------------------|
D|----------------------|---------------------------|
A|--7--------------7\---|--3----------5------2/-----|
E|----------------------|---------------------------|


|------------------|--------------------|-----------------------------------|
|------------------|--------------------|-----------------------------------|
|--7------------7\-|--3---------------2-|--3----------3--3--3---------------|
|------------------|--------------------|-----------------------------------|

                                                Chorus
|---------------------|---------------------|-------------------------------|
|---------------------|---------------------|-------------------------------|
|--3/5----5--5--5--2/-|--7---------------7\-|--3---------5--5--5------------|
|---------------------|---------------------|-------------------------------|

G|-------------------|------------------|
D|----9--9-----------|-----5------------| Play this three times.
A|-7---------7-6-5-4-|-3------3/5555555-|
E|-------------------|------------------|

G|-------------------------------------------------------------|
D|-----------5----5-----3/5555--345/77777\---9---9\--5---------|
A|0--/7777--7-7--7-7-3---------5-----------77-7-7--33-03303/7--|
E|---------7---------------------------------------------------|
[ Tab from: http://www.guitartabs.cc/tabs/a/alice_cooper/im_eighteen_btab.html ]
|------------------------------|----------------------------|----------------------|
|--------9--------------9\-----|---------5------------------|--------9----------9\-|
|--7--7-----7--------7---------|--3---3------3--3--2--3---5-|--7--7-----7----7-----|
|------------------------------|----------------------------|----------------------|

|-------------------------|----------------------|-----------------------|
|--------5----------------|-----------5--5-----5-|--------7--------------|
|--3--3-----3--3--5-5-5-5-|--3-----3-------------|--5--5-----5--5--5--2/-|
|-------------------------|----------------------|-----------------------|

|----------------------------|-------------------------|
|--------9----------9\-------|--------5----------------| To chorus.
|--7--7-----7----7-----------|--3--3-----3--3--5--5--5-|
|----------------------------|-------------------------|

End
G|--------7--9----7h9--7--7----|---------------------------------------------|
D|-----9---------------------9-|--------5------------------------------------|
A|--7--------------------------|--3--3-----3------------5--5--5--------------|
E|-----------------------------|---------------------------------------------|

G|--------7--9--9--9---7--7----|-----------3---5-5-5-5--5--5-----------------|
D|-----9---------------------9-|--------5---------------------5--------------|
A|--7--------------------------|--3--3---------------------------------------|
E|-----------------------------|---------------------------------------------|


G|--------7--9--9--9--7----|--------3--5---------5--7-|
D|-----9-----------------9-|-----5------------7-------|Twice.
A|--7----------------------|--3------------5----------|
E|-------------------------|--------------------------|

G|--------7--9--9--9--7----|--------3--5---------5--7-|----------------------|
D|-----9-----------------9-|-----5------------7-------|----------------------|
A|--7----------------------|--3------------5----------|---7----7-------------|
E|-------------------------|--------------------------|----------------------|

    C            D           Em
G|----------------------------------|
D|----------------------------------|
A|--3------------5-----------7------|
E|----------------------------------|

submitted by Achilles 
Comments