Alice Cooper - Hey Stoopid Chords & Tabs

 

Hey Stoopid Chords & Tabs

Alice Cooper Chords & Tabs

Version: 1 Type: Bass Tab 0 ratings
1 star 2 stars 3 stars 4 stars 5 stars
comments

Hey Stoopid Bass Tab

Hey Stoopid by Alice Cooper
Standard Tuning
No Bass until (0.31)

(Intro)
G:--------------------------------------------------------------------|
D:----------------3-3-3-3-3-3-----------------------------------------|  X3
A:------------2-3----------------2-3--3-3-3-3-3-3--2-0----------------|
E:5-5-5-5-5-5------------------5------------------------3-3-3-3-3-3---|

Now I know you've been. . .
G:-----------------------|
D:------2----------3-5---|  X2
A:--2-3---5--3-2---------|
E:5--------------3-------|

(Chorus)
G:-------------------------------------|
D:----5-6-6-5----8-6-5-----------------|
A:--6---------6----------------6-6-5---|
E:8---------------------8-6-8--------6-|

G:--------------------------------------------|
D:----5-6-6-5---/10-8---------6-6-5-----------|
A:--6---------6---------------------6----8-10-|
E:8--------------------8-6-8------------------|

G:--------------------|
D:--------------------|
A:--------------------|
E:8-8--8-8--8-8-6-6-6-|

G:--------------------------------------------------------------------|
D:----------------3-3-3-3-3-3-----------------------------------------|  X2
A:------------2-3----------------2-3--3-3-3-3-3-3--2-0----------------|
E:5-5-5-5-5-5------------------5------------------------3-3-3-3-3-3---|

G:-----------------------|
D:------2----------3-5---|  X2
A:--2-3---5--3-2---------|
E:5--------------3-------|

Chorus)
G:-------------------------------------|
D:----5-6-6-5----8-6-5-----------------|
A:--6---------6----------------6-6-5---|
E:8---------------------8-6-8--------6-|

G:--------------------------------------------|
D:----5-6-6-5---/10-8---------6-6-5-----------|
A:--6---------6---------------------6----8-10-|
E:8--------------------8-6-8------------------|
[ Tab from: http://www.guitartabs.cc/tabs/a/alice_cooper/hey_stoopid_btab.html ]
G:--------------------|
D:------------6-6-----|
A:----------------5---|
E:8-8--8-8-8--------8-|

(During Solo)
G:----------------------------------------------|
D:------------9(8)-12(8)------------------------|
A:10(8)-12(8)------------10(8)-12(8)------------|
E:-----------------------------------14(8)-12(8)|

G:----------------------------------------------|
D:-----------------------------------8(16)------|
A:10-(16)-12(16)-10(16)-12(16)-9(16)------------|
E:----------------------------------------------|

(bass starts at (3.51)
G:--------------|
D:--------------|
A:8(8)----10(8)-|
E:--------------|

(Chorus)
G:-------------------------------------------------------|
D:----5-6-6-5----8-6-5-----------------------------------|
A:--6---------6----------------6-6-5---------------------|                 
E:8---------------------8-6-8--------6-------------------|                  
                                                         
G:-------------------------------------------------------|            
D:----5-6-6-5---/10-8---------6-6-5----------------------|           
A:--6---------6---------------------6----8-10------------|
E:8--------------------8-6-8-----------------------------|

G:-------------------------------------------------------|
D:----5-6-6-5----8-6-5-----------------------------------|
A:--6---------6----------------6-6-5---------------------|                 
E:8---------------------8-6-8--------6-------------------|                  
                                                         
G:-------------------------------------------------------|            
D:----5-6-6-5---/10-8---------6-6-5----------------------|           
A:--6---------6---------------------6----8-10------------|
E:8--------------------8-6-8-----------------------------|

Thanks, please rate after you learn it.
Tabbed by:
_TheBassist01_
Comments