Alexisonfire - Water Wings Chords & Tabs

 

Water Wings Chords & Tabs

Alexisonfire Chords & Tabs

Version: 2 Type: Tab 0 ratings
1 star 2 stars 3 stars 4 stars 5 stars
comments

Water Wings Tab

 WATER WINGS by ALEXISONFIRE
                       
                           tabbed by :Erich yeung
                          standard tuning(EADGBE)   
  
  P.M (palm muted)
   X3 (play 3 times)

              INTRO
|--------------------------------------------------------------------------|
|--------------------------------------------------------------------------|
|--------11---11-11---------13-13-13--------10-10-10------------10--8-10---|
|---------x----x--x----------x--x--x---------x--x--x-------------x--x--x---|
|---------9----9--9---------11-11-11---------8--8--8-------------8--6--8---|
|--------------------------------------------------------------------------|

|--------------------------------------------------------------------------|
|--------------------------------------------------------------------------|
|------11---11-11----------13-13---15----------10-10-10---------10--8-10---|
|-------x----x--x-----------x--x----x-----------x--x--x----------x--x--x---|
|-------9----9--9----------11-11---13-----------8--8--8----------8--6--8---|
|--------------------------------------------------------------------------|
[ Tab from: http://www.guitartabs.cc/tabs/a/alexisonfire/water_wings_tab_ver_2.html ]
       
                                 verse
|--------------------------------------------------------------------------|
|--------------------------------------------------------------------------|
|------------11-----11-----11------------------11-----11-----11------------|
|------13-13--x------x--13--x------------13-13--x------x--13--x------------|
|------13-13--9------9--13--9------------13-13--9------9--13--9------------|
|------11-11------------11---------------11-11------------11---------------|
      |-----|                           |-----|                   
        P.M                               P.M


                                 CHORUS
|--------------------------------------------------------------------------|
|--------------------------------------------------------------------------|
|----8---------------------------------------------------------------------|
|----8--play-8-times----------9--------------------------11----------------|
|----6------------------------9--play-8-times------------11-play-14-times--|
|-----------------------------7---------------------------9----------------|

BRIDGE
|------------------------|
|------------------------|
|------------------------|
|----8-8-------9-9-------|X3
|----8-8-P.M---9-9-P.M---|
|----6-6-------7-7-------|-
 
on the fourth time play -
|-----------------------------------------|-
|-----------------------------------------|-
|---------------P.M-----------------------|-
|---8-8------9-9--9-9-9----9--------------|-
|---8-8-P.M--9-9--9-9-9----9--let-ring----|-
|---6-6------7-7--7-7-7----7--------------|-

CHORUS



                                 OUTRO(same as chorus)

I'm sorry about where i put the P.M(palm muting). My computer is messed up so i couldn't
put them on the bottom during the last two measures. I haven't figured out the solos for
this song yet but i'm working on it.
E-mail me if you have anything to say about the tab
at "Ride_the_Lightning_525@hotmail.com"

Erich Yeung,
Comments