Alexisonfire - Water Wings Chords & Tabs

 

Water Wings Chords & Tabs

Alexisonfire Chords & Tabs

Version: 1 Type: Tab 0 ratings
1 star 2 stars 3 stars 4 stars 5 stars
comments

Water Wings Tab

                          Alexisonfire - Water Wings
                          Tabbed entirely by: J@ck0

                     And when I say entirely it's ENTIRELY!!

	This song is cool and easy to play. Just listen the song 
         	     and use these chords. Have fun!

   -----------------------------------
   -----------------------------------
   ---8------11------10---------------
   ---8------11------10-----11--------
   ---6------9-------8------11--------
   -------------------------9---------

    Or if you prefer this chords:
 
   -----------------------------------
   ---4------7-------6----------------
   ---3------6-------5------6---------
   ---1------4-------3------6---------
   -------------------------4---------
   -----------------------------------
[ Tab from: http://www.guitartabs.cc/tabs/a/alexisonfire/water_wings_tab.html ]
   For the solo you can simply improvise one like that:
 
   -----------------------------------------------
   -----------------------------------------------
   -----------------------------------------------
   -----------------------------------------------
   ---9-8-6---6-8-9-9-8-6-----6-8-9----9-8-6------
   ---------9-------------6-9----------------6----


***********************************************************************************
**                                LYRICS                                         **
***********************************************************************************
**                                                                               **
** you always had the blondest hair. Chlorine has stripped the pigment from      **
** your skin. The cash was worth the fucking change. At the pool from open to    **
** close. Rake the bottom for loose change. A job that got him his luxurious     **
** house and cars but it probably lead to his divorce. Its probably the reason   **
** why his son hates him. Now your blood is so toxic with chlorine that you      **
** only have 3 months to live. Was the change worth it? Was the divorce worth    **
** it? You will never see your son again.                      			 **
**                                                                               **
***********************************************************************************
Alexisonfire Web Site: www.theonlybandever.com
Comments