Alexisonfire - The Kennedy Curse Chords & Tabs

 

The Kennedy Curse Chords & Tabs

Alexisonfire Chords & Tabs

Version: 2 Type: Tab 0 ratings
1 star 2 stars 3 stars 4 stars 5 stars
comments

The Kennedy Curse Tab

----------------------------------------------------------------------------
                 Alexisonfire - The Kennedy Curse                        
----------------------------------------------------------------------------
Tabbed by: Mike Tapscott
Email: Big_baker_boy@hotmail.com

Tuning: Standard

~ = Hold Note
/ = Slide to Next Note
* = Palm Mute

Note: Unlike the people that tab songs and think that they "know that the tab is
100% correct" (for example "j@cko" that tabbed the first kennedy curse.. it is
soo wrong...) this tab actually is correct, the entire song. The only thing that
could possibly be incoreect is the the number of times a bar is played, because
that could easily be mistaken, because it is played fast.  This tab is a Mixture
of Guitar 1 and 2, so that while playing the whole song by your self, you can
accually play something the entire time.

---------------------------------------------------------
---------------------------------------------------------
---------------------------------------------------------
--------2----2---------------6----------6----------------  X2
------2---2--2------------6-----6---- -6-6---------------
---0--------00----0-/-4-----------4-4-4------------------

---------------------------------------------------------
---------------------------------------------------------
---------------------------------------------------------
---2--2--2~-----------6--6--6~---------------------------
---2--2--2~-----------6--6--6~---------------------------
---0--0--0~-----------4--4--4~---------------------------

------|--------------------------------------------------
------|--------------------------------------------------
------|--------------------------------------------------  
------|--------------------------------------------------  X8
------|-----6-7--9-7-6-7---------------------------------
-17/1-|---00-0--0----------------------------------------

---------------------------------------------------------
---------------------------------------------------------
---------------------------------------------------------
-22--222--222--222--266--666--666--666--6----------------  X7
-22--222--222--222--266--666--666--666--6----------------
-00--000--000--000--044--444--444--444--4----------------

---------------------------------------------------------
---------------------------------------------------------
---------------------------------11-9--8-----------------
-22--222--222--222--266--666--6--11-9--8-----------------  
-22--222--222--222--266--666--6--9--7--6-----------------
-00--000--000--000--044--444--4--------------------------

---------------------------------------------------------
---------------------------------------------------------
---------------------------------------------------------
---------------------------------------------------------  X8
---6--7--9--7--6----last time through end and hold on 6~~
-00-00-00-00-00-000--------------------------------------
[ Tab from: http://www.guitartabs.cc/tabs/a/alexisonfire/the_kennedy_curse_tab_ver_2.html ]
---------------------------------------------------------
---------------------------------------------------------
---------------------------------------------------------
---------------------------------------------------------
~~~~~~/7~~~~/6/2~~~~~~~~~~4~~~~6~~~~4~~~~2~~~~~~~/6~~~~~~
---------------------------------------------------------






----------------------------------------------|
----------------------------------------------|
----------------------------------------------|then Jump 
----------------------------------------------|  into..
~~~~~~/7~~~~/6/2~~~~~~~~~~4~~~~6~~~~4~~~~2~~~~|
----------------------------------------------|

---------------------------------------------------------
---------------------------------------------------------
--*-----------------*------------------------------------
-22----------2-222-22----2---------66-666-66----6--------  X4
-22----------2-222-22----2---------66-666-66----6--------
-00----------0-000-00----0---------44-444-44----4--------

---------------------------------------------------------
---------------------------------------------------------
---------------------------------------------------------
-2222------------------------6666------------------------  X2
-2222- Strum E 32 times------6666- Strum G# 32 times-----
-0000------------------------4444------------------------

---------------------------------------------------------
---------------------------------------------------------
-****------------------------****------------------------
-2222------------------------6666------------------------  X2
-2222- Strum E 32 times(PM)--6666- Strum G# 32 times(PM)-
-0000------------------------4444------------------------


--14-11-12-11-12-11--------------------------------------
--------------------14-12--------------------------------
---------------------------------------------------------
---------------------------------------------------------  X4
---------------------------------------------------------
---------------------------------------------------------


---------------------------------------------------------
---------------------------------------------------------
---------------------------------------------------------
-2222------------------------6666------------------------  
-2222- Strum E 32 times------6666- Strum G# 32 times-----
-0000------------------------4444------------------------

---------------------------------------------------------
---------------------------------------------------------
---------------------------------------------------------
-2222------------------------6666------------------------  
-2222- Strum E 32 times------6666- Strum G# 24 times-----
-0000------------------------4444------------------------
---------------------------------------------------------

---------------------------------------------------------
--11-9--8------------------------------------------------
--11-9--8----2~~~~~~~~~~~~~~~~~~~~~~~~~~~~~~~~~~~~~~~~~~~  
--9--7--6----2~~~~~~~~~~ And HOLD ~~~~~~~~~~~~~~~~~~~~~~~
-------------0~~~~~~~~~~~~~~~~~~~~~~~~~~~~~~~~~~~~~~~~~~~

this is the first tab of "the Kennedy Curse" out of all 5 tabs of this song on
the ENTIRE internet that is correct, or for that matter even remotely correct.   enjoy :)
Comments