Alexisonfire - Sidewalk When She Walks Chords & Tabs

 

Sidewalk When She Walks Chords & Tabs

Alexisonfire Chords & Tabs

Version: 1 Type: Tab 0 ratings
1 star 2 stars 3 stars 4 stars 5 stars
comments

Sidewalk When She Walks Tab

   
#----------------------------------PLEASE NOTE---------------------------------#
#This file is the author's own work and represents their interpretation of the #
#song. You may only use this file for private study, scholarship, or research. #
#------------------------------------------------------------------------------#

SIDEWALK WHEN SHE WALKS
As recorded by Alexisonfire
(From the 2004 Album WATCH OUT!)

Transcribed by James Martyn
	

Words by Dallas Green Music by Alexisonfire

Gtr I (Eb Ab Db Gb Bb Eb) - 'Wade'
Gtr II (Eb Ab Db Gb Bb Eb) - 'Dallas'
Gtr III (Eb Ab Db Gb Bb Eb) - 'Wade'
Gtr IV (Eb Ab Db Gb Bb Eb) - 'Dallas'
Gtr V (Eb Ab Db Gb Bb Eb) - 'Piano'
Gtr VI (Eb Ab Db Gb Bb Eb) - 'Overdubs'

 Intro                 Pre-Chorus
  Q=7H=H                Q=80
  N.C.                  N.C.      Dsus2
 2/4                   4/4
  Gtr I                 Gtr III
   S S S S  S  S  S S    Q    Q   S. S. S Q
|-10------------------|-----------5--5--5-5-----|
|----7----------------|-------7---5--5--5-5-----|
|------9-7--9s11s=9p7-|--4--------7--7--7-7-----|
|---------------------|-------------------------|
|---------------------|-------------------------|
|---------------------|-------------------------|
|
| Gtr II                Gtr IV
|  S S S S  S  S  S S    Q    Q   S. S. S E S S
|---------------------|-------------------------|
|--7---7---10----10---|-(7)--(7)----------------|
|----4---4-----7----7-|--7----7---4--4--4-4-4-4-|
|---------------------|--7----7---5--5--5-5-5-5-|
|---------------------|--9----9---5--5--5-5-5-5-|
|---------------------|--7----7---3--3--3-3-3-3-|


  Bsus2/F#Bm/F#            Dsus2
   E.      Q           +S  S. S. S Q
|--9------10----------(10)-5--5--5-5-----|
|-12------12----------(12)-5--5--5-5-----|
|-11------11----------(11)-7--7--7-7-----|
|----------------------------------------|
|----------------------------------------|
|----------------------------------------|
|
|  S.  S.  S   E   S    S  S. S. S E S S
|----------------------------------------|
|-(7)-(7)-(7)-(7)-(7)--(7)---------------|
|--7---7---7---7---7----7--4--4--4-4-4-4-|
|--7---7---7---7---7----7--5--5--5-5-5-5-|
|--9---9---9---9---9----9--5--5--5-5-5-5-|
|--7---7---7---7---7----7--3--3--3-3-3-3-|


   Chorus
    B5
     S.  S.  S   E   S   S   S.  S.  S   E   S   S
||--------------------------------------------------|
||o-------------------------------------------------|
||--------------------------------------------------|
||---9---9---9---9---9---9---9---9---9---9---9---9--|
||o--9---9---9---9---9---9---9---9---9---9---9---9--|
||---7---7---7---7---7---7---7---7---7---7---7---7--|
|
|    S.  S.  S   E   S   S   S.  S.  S   E   S   S
||--------------------------------------------------|
||o-(7)-(7)-(7)-(7)-(7)-(7)-(7)-(7)-(7)-(7)-(7)-(7)-|
||---7---7---7---7---7---7---7---7---7---7---7---7--|
||---7---7---7---7---7---7---7---7---7---7---7---7--|
||o--9---9---9---9---9---9---9---9---9---9---9---9--|
||---7---7---7---7---7---7---7---7---7---7---7---7--|


  Dadd11/G                                            N.C.
                                                     2/4
   S.  S.  S   E   S   S   S.  S.  S   E   S   S       S  S S S S  S S S
|--------------------------------------------------||-10-----------------|
|-------------------------------------------------o||-----7--------------|
|--------------------------------------------------||-------9-7-9s11s9-7-|
|-(4)-(4)-(4)-(4)-(4)-(4)-(4)-(4)-(4)-(4)-(4)-(4)--||--------------------|
|--5---5---5---5---5---5---5---5---5---5---5---5--o||--------------------|
|--3---3---3---3---3---3---3---3---3---3---3---3---||--------------------|
|
|  S.  S.  S   E   S   S   S.  S.  S   E   S   S       H
|--------------------------------------------------||--------------------|
|-------------------------------------------------o||-(7)----------------|
|--4---4---4---4---4---4---4---4---4---4---4---4---||--7-----------------|
|--5---5---5---5---5---5---5---5---5---5---5---5---||--7-----------------|
|--5---5---5---5---5---5---5---5---5---5---5---5--o||--9-----------------|
|--3---3---3---3---3---3---3---3---3---3---3---3---||--7-----------------|


 Pre-Verse
  N.C.          Dsus2
 4/4
  Q   H     +E. T T    W
|---------------5-5-|--5---------|
|-----7-----(7)-7-7-|--7---------|
|-4-------------7-7-|--7---------|
|-------------------|------------|
|-------------------|------------|
|-------------------|------------|
|
| Q   H.              +W
|-------------------|------------|
|-----7-------------|-(7)--------|
|-7--(7)------------|-(7)--------|
|-7--(7)------------|-(7)--------|
|-9--(9)------------|-(9)--------|
|-7--(7)------------|-(7)--------|


  N.C.
  S E E.     S Q  +S  Q    S S S H.            +S
|-----5------------------|-------5-------------(5)---|
|------------------------|---------------------------|
|-6h7--------7-6--(6)-7--|-6h7p6---------------------|
|------------------------|---------------------------|
|------------------------|---------------------------|
|------------------------|---------------------------|
|
| S E S  S E   Q  +S  Q    S S S S  S S S H    +S
|-----5------------------|-------5-------------------|
|------------------------|---------------------------|
|-6h7----6h7---6--(6)-7--|-6h7p6----6h7p6-6----(6)---|
|------------------------|---------------------------|
|------------------------|---------------------------|
|------------------------|---------------------------|


 Verse
  N.C.
  Gtr I
   S S S S S  S S  S   S S S  S S  S S S
|-10------------------10-----------------|
|----7-------------------7---------------|
|------9-7-9s11s9p=7-------9--7-9s11s9p7-|
|----------------------------------------|
|----------------------------------------|
|----------------------------------------|
|
| Gtr II
|  Q       E.      E.      E.      E.
|-10-------------------------------------|
|-----------------10---------------------|
|----------9---------------9-------9-----|
|----------------------------------------|
|----------------------------------------|
|----------------------------------------|
|
| Gtr V
|  W
|----------------------------------------|
|----------------------------------------|
|----------------------------------------|
|----------------------------------------|
|----------------------------------------|
|----------------------------------------|


   S S S S  S  S S S  S S S  S   S  S S S
|-10-----------------10-------------------|
|----7------------------7-----------------|
|------9-7--9s11s9p7------9--7---9s11s9p7-|
|-----------------------------------------|
|-----------------------------------------|
|-----------------------------------------|
|
|  Q        E.     Q         E.       E
|-10--------------------------------------|
|----------10---------------10------------|
|------------------9------------------9---|
|-----------------------------------------|
|-----------------------------------------|
|-----------------------------------------|
|
|  H                  Q          Q
|--------------------12---------14--------|
|-----------------------------------------|
|-----------------------------------------|
|-----------------------------------------|
|-----------------------------------------|
|-----------------------------------------|


  N.C.
   S S S S S  S S  S   S S S  S S  S S S
|-10------------------10-----------------|
|----7-------------------7---------------|
|------9-7-9s11s9p=7-------9--7-9s11s9p7-|
|----------------------------------------|
|----------------------------------------|
|----------------------------------------|
|
|  Q       E.      E.      E.      E.
|-10-------------------------------------|
|-----------------10---------------------|
|----------9---------------9-------9-----|
|----------------------------------------|
|----------------------------------------|
|----------------------------------------|
|
|  W
|----------------------------------------|
|-15-------------------------------------|
|----------------------------------------|
|----------------------------------------|
|----------------------------------------|
|----------------------------------------|


   S S S S  S  S S S  S S S  S  S  S S S
|-10-----------------10------------------|
|----7------------------7----------------|
|------9-7--9s11s9p7------9--7--9s11s9p7-|
|----------------------------------------|
|----------------------------------------|
|----------------------------------------|
|
|  Q        E.     Q         E.      E
|-10-------------------------------------|
|----------10---------------10-----------|
|------------------9-----------------9---|
|----------------------------------------|
|----------------------------------------|
|----------------------------------------|
|
|  H                  H
|----------------------------------------|
|-14-----------------15------------------|
|----------------------------------------|
|----------------------------------------|
|----------------------------------------|
|----------------------------------------|


  N.C.
   S S S S S  S S  S   S S S  S S  S S S
|-10------------------10-----------------|
|----7-------------------7---------------|
|------9-7-9s11s9p=7-------9--7-9s11s9p7-|
|----------------------------------------|
|----------------------------------------|
|----------------------------------------|
|
|  Q       E.      E.      E.      E.
|-10-------------------------------------|
|-----------------10---------------------|
|----------9---------------9-------9-----|
|----------------------------------------|
|----------------------------------------|
|----------------------------------------|
|
|  W
|----------------------------------------|
|----------------------------------------|
|-11-------------------------------------|
|----------------------------------------|
|----------------------------------------|
|----------------------------------------|


   S S S S  S  S S S  S S S  S   S  S S S
|-10-----------------10-------------------|
|----7------------------7-----------------|
|------9-7--9s11s9p7------9--7---9s11s9p7-|
|-----------------------------------------|
|-----------------------------------------|
|-----------------------------------------|
|
|  Q        E.     Q         E.       E
|-10--------------------------------------|
|----------10---------------10------------|
|------------------9------------------9---|
|-----------------------------------------|
|-----------------------------------------|
|-----------------------------------------|
|
|  H                  Q          Q
|--------------------12---------14--------|
|-----------------------------------------|
|-----------------------------------------|
|-----------------------------------------|
|-----------------------------------------|
|-----------------------------------------|


  N.C.
   S S S S S  S S  S   S S S  S S  S S S    S  S H..
|-10------------------10-----------------|------------------------|
|----7-------------------7---------------|------------------------|
|------9-7-9s11s9p=7-------9--7-9s11s9p7-|--9s11s9----------------|
|----------------------------------------|------------------------|
|----------------------------------------|------------------------|
|----------------------------------------|------------------------|
|
|  Q       E.      E.      E.      E.       W
|-10-------------------------------------|-10---------------------|
|-----------------10---------------------|------------------------|
|----------9---------------9-------9-----|------------------------|
|----------------------------------------|------------------------|
|----------------------------------------|------------------------|
|----------------------------------------|------------------------|
|
|  W                                        Q        S  H     +E.
|----------------------------------------|------------------------|
|-15-------------------------------------|-------------14----(14)-|
|----------------------------------------|------------------------|
|----------------------------------------|------------------------|
|----------------------------------------|------------------------|
|----------------------------------------|------------------------|


 Pre-Chorus
  N.C.      Dsus2           Bsus2/F#Bm/F#            Dsus2
  Gtr III
   Q    Q   S. S. S Q        E.      Q           +S  S. S. S Q
|-----------5--5--5-5-----|--9------10----------(10)-5--5--5-5-----|
|-------7---5--5--5-5-----|-12------12----------(12)-5--5--5-5-----|
|--4--------7--7--7-7-----|-11------11----------(11)-7--7--7-7-----|
|-------------------------|----------------------------------------|
|-------------------------|----------------------------------------|
|-------------------------|----------------------------------------|
|
| Gtr IV
|  Q    Q   S. S. S E S S    S.  S.  S   E   S    S  S. S. S E S S
|-------------------------|----------------------------------------|
|-(7)--(7)----------------|-(7)-(7)-(7)-(7)-(7)--(7)---------------|
|--7----7---4--4--4-4-4-4-|--7---7---7---7---7----7--4--4--4-4-4-4-|
|--7----7---5--5--5-5-5-5-|--7---7---7---7---7----7--5--5--5-5-5-5-|
|--9----9---5--5--5-5-5-5-|--9---9---9---9---9----9--5--5--5-5-5-5-|
|--7----7---3--3--3-3-3-3-|--7---7---7---7---7----7--3--3--3-3-3-3-|


   Chorus
                                                      1.
    B5                                                Dadd11/G
     S.  S.  S   E   S   S   S.  S.  S   E   S   S     S.  S.  S   E   S   S   S.  S.  S   E   S   S
||--------------------------------------------------|---------------------------------------------------||
||o-------------------------------------------------|--------------------------------------------------o||
||--------------------------------------------------|---------------------------------------------------||
||---9---9---9---9---9---9---9---9---9---9---9---9--|-(4)-(4)-(4)-(4)-(4)-(4)-(4)-(4)-(4)-(4)-(4)-(4)---||
||o--9---9---9---9---9---9---9---9---9---9---9---9--|--5---5---5---5---5---5---5---5---5---5---5---5---o||
||---7---7---7---7---7---7---7---7---7---7---7---7--|--3---3---3---3---3---3---3---3---3---3---3---3----||
|
|    S.  S.  S   E   S   S   S.  S.  S   E   S   S     S.  S.  S   E   S   S   S.  S.  S   E   S   S
||--------------------------------------------------|---------------------------------------------------||
||o-(7)-(7)-(7)-(7)-(7)-(7)-(7)-(7)-(7)-(7)-(7)-(7)-|--------------------------------------------------o||
||---7---7---7---7---7---7---7---7---7---7---7---7--|--4---4---4---4---4---4---4---4---4---4---4---4----||
||---7---7---7---7---7---7---7---7---7---7---7---7--|--5---5---5---5---5---5---5---5---5---5---5---5----||
||o--9---9---9---9---9---9---9---9---9---9---9---9--|--5---5---5---5---5---5---5---5---5---5---5---5---o||
||---7---7---7---7---7---7---7---7---7---7---7---7--|--3---3---3---3---3---3---3---3---3---3---3---3----||


  2.215
  G5
  W          +W           +W           +W
|----------|------------|------------|--------|
|----------|------------|------------|--------|
|----------|------------|------------|--------|
|-5--------|-(5)--------|-(5)--------|-(5)----|
|-5--------|-(5)--------|-(5)--------|-(5)----|
|-3--------|-(3)--------|-(3)--------|-(3)----|
|
| W          +W           +W           +W
|----------|------------|------------|--------|
|----------|------------|------------|--------|
|-4--------|-(4)--------|-(4)--------|-(4)----|
|-5--------|-(5)--------|-(5)--------|-(5)----|
|-5--------|-(5)--------|-(5)--------|-(5)----|
|-3--------|-(3)--------|-(3)--------|-(3)----|


 Drum Break
  Wx5
|--------|
|--------|
|--------|
|--------|
|--------|
|--------|
|
| Wx5
|--------|
|--------|
|--------|
|--------|
|--------|
|--------|

[ Tab from: http://www.guitartabs.cc/tabs/a/alexisonfire/sidewalk_when_she_walks_tab.html ]
   Bridge
    Q=70
    N.C.        Dadd11/G           N.C.         Dadd11/G
    Gtr I
    E  S  S S S H            +E     E  S  S S S H             +E
||-------------------------------|-----------------------------------||
||o------------------------------|----------------------------------o||
||----------7--------------------|----------7------------------------||
||--------7-----4------------(4)-|--------7-----4-------------(4)----||
||o----9--------5------------(5)-|-----9--------5-------------(5)---o||
||--7-----------3------------(3)-|--7-----------3-------------(3)----||
|
|   Gtr II
|   E.    S S S H            +E    +E.    S S S E. S S S S  S  S  S
||-------------------------------|-----------------------------------||
||o------10-7-x-8------------(8)-|-(8)---10-7-x-8-------------------o||
||-------------------------------|-----------------7-9-7-9s11--9h11--||
||-------------------------------|-----------------------------------||
||o------------------------------|----------------------------------o||
||-------------------------------|-----------------------------------||
|
|   Gtr V
|   H              S  S  Q.         W
||----------------14-15-27-------|-----------------------------------||
||o------------------------------|----------------------------------o||
||-------------------------------|-----------------------------------||
||-------------------------------|-----------------------------------||
||o------------------------------|----------------------------------o||
||-------------------------------|-----------------------------------||


  N.C.        Dadd11/G                      N.C.         Dadd11/G
  E  S  S S S H                   +E         E  S  S S S H             +E
|-----------------------------------------|----------------------------------|
|-----------------------------------------|----------------------------------|
|---------7-------------------------------|----------7-----------------------|
|-------7-----4-------------------(4)-----|--------7-----4-------------(4)---|
|----9--------5-------------------(5)-----|-----9--------5-------------(5)---|
|-7-----------3-------------------(3)-----|--7-----------3-------------(3)---|
|
| E.    S S S Q.            S  S   S   S    +E.    S S S E. S S S S  S  S  S
|--------------------------10-----10------|----------------------------------|
|------10-7-x-8---------------(8)-----(8)-|-(8)---10-7-x-8-------------------|
|-----------------------------------------|-----------------7-9-7-9s11--9h11-|
|-----------------------------------------|----------------------------------|
|-----------------------------------------|----------------------------------|
|-----------------------------------------|----------------------------------|
|
| H               S  S  Q.                   W
|----------------14-15-27-----------------|----------------------------------|
|-----------------------------------------|----------------------------------|
|-----------------------------------------|----------------------------------|
|-----------------------------------------|----------------------------------|
|-----------------------------------------|----------------------------------|
|-----------------------------------------|----------------------------------|


  N.C.        Dadd11/G           N.C.         Dadd11/G
  E  S  S S S H            +E     E  S  S S S H             +E
|------------------------------|----------------------------------|
|------------------------------|----------------------------------|
|---------7--------------------|----------7-----------------------|
|-------7-----4------------(4)-|--------7-----4-------------(4)---|
|----9--------5------------(5)-|-----9--------5-------------(5)---|
|-7-----------3------------(3)-|--7-----------3-------------(3)---|
|
| E.    S S S H            +E    +E.    S S S E. S S S S  S  S  S
|------------------------------|----------------------------------|
|------10-7-x-8------------(8)-|-(8)---10-7-x-8-------------------|
|------------------------------|-----------------7-9-7-9s11--9h11-|
|------------------------------|----------------------------------|
|------------------------------|----------------------------------|
|------------------------------|----------------------------------|
|
| H              S  S  Q.         W
|---------------14-15-27-------|----------------------------------|
|------------------------------|----------------------------------|
|------------------------------|----------------------------------|
|------------------------------|----------------------------------|
|------------------------------|----------------------------------|
|------------------------------|----------------------------------|


 Breakdown
  Q=85
  B5 D  C# G          B5 D  C# G    E5
  Gtr III
  E.  S  E H    +E    E.  S  E Q.   S S S S
|-------------------|-----------------------|
|-------------------|-----------------------|
|-----7S=6-4----(4)-|-----7S=6-4------------|
|-9--------5----(5)-|-9--------5----2-2-2-2-|
|-9---5S=4-5----(5)-|-9---5S=4-5----2-2-2-2-|
|-7--------3----(3)-|-7--------3----0-0-0-0-|
|
| Gtr IV
| E.  S  E H    +E    E.  S  E Q.   S S S S
|-------------------|-----------------------|
|-------------------|-----------------------|
|----11S12----------|----11S12--------------|
|-9--------5----(5)-|-9--------5----2-2-2-2-|
|-9---9S10-5----(5)-|-9---9S10-5----2-2-2-2-|
|-7--------3----(3)-|-7--------3----0-0-0-0-|


  B5 D  C# G          B5 D  C# G    E5
  E.  S  E H    +E    E.  S  E H    E
|-------------------|------------------|
|-------------------|------------------|
|-----7S=6-4----(4)-|-----7S=6-4-------|
|-9--------5----(5)-|-9--------5----2--|
|-9---5S=4-5----(5)-|-9---5S=4-5----2--|
|-7--------3----(3)-|-7--------3----0--|
|
| E.  S  E H    +E    E.  S  E H    E
|-------------------|------------------|
|-------------------|------------------|
|----11S12----------|----11S12---------|
|-9--------5----(5)-|-9--------5----2--|
|-9---9S10-5----(5)-|-9---9S10-5----2--|
|-7--------3----(3)-|-7--------3----0--|


    B5 D  C# G         B5 D  C# G    E5
    E.  S  E Q  Q.     E.  S  E Q  E S S S S
||-------------------|------------------------||
||o------------------|-----------------------o||
||------7S=6-4--4----|-----7S=6-4--4----------||
||--9--------5--5----|-9--------5--5-2-2-2-2--||
||o-9---5S=4-5--5----|-9---5S=4-5--5-2-2-2-2-o||
||--7--------3--3----|-7--------3--3-0-0-0-0--||
|
|   E.  S  E Q  Q.     E.  S  E Q  E S S S S
||-------------------|------------------------||
||o------------------|-----------------------o||
||-----11S12---------|----11S12---------------||
||--9--------5--5----|-9--------5--5-2-2-2-2--||
||o-9---9S10-5--5----|-9---9S10-5--5-2-2-2-2-o||
||--7--------3--3----|-7--------3--3-0-0-0-0--||


    B5      D  C#    G
     E.      S  E    Q        Q.
||------------------------------------------|
||o-----------------------------------------|
||-----------7S=6----4--------4-------------|
||---9---------------5--------5-------------|
||o--9-------5S=4----5--------5-------------|
||---7---------------3--------3-------------|
|
|    E.      S  E    Q        Q.
||------------------------------------------|
||o-----------------------------------------|
||----------11S12---------------------------|
||---9---------------5--------5-------------|
||o--9-------9S10----5--------5-------------|
||---7---------------3--------3-------------|
|
|   Gtr VI
|    S  S S  S  S  S S S  S S S  S S  S S S
||--10-------------------10-----------------|
||o-----7-------------------7---------------|
||--------9--7--9s11s9p7------9--7-9s11s9p7-|
||------------------------------------------|
||o-----------------------------------------|
||------------------------------------------|


  B5      D  C#    G            E5
   E.      S  E    Q        E   S  S S S
|-----------------------------------------||
|----------------------------------------o||
|----------7S=6----4--------4-------------||
|--9---------------5--------5---2--2-2-2--||
|--9-------5S=4----5--------5---2--2-2-2-o||
|--7---------------3--------3---0--0-0-0--||
|
|  E.      S  E    Q        E   S  S S S
|-----------------------------------------||
|----------------------------------------o||
|---------11S12---------------------------||
|--9---------------5--------5---2--2-2-2--||
|--9-------9S10----5--------5---2--2-2-2-o||
|--7---------------3--------3---0--0-0-0--||
|
|  S  S S  S  S  S S S  S S S S S  S S S
|-10-------------------10-----------------||
|-----7-------------------7--------------o||
|-------9--7--9s11s9p7------9-7-9s11s9p7--||
|-----------------------------------------||
|----------------------------------------o||
|-----------------------------------------||


                       Pre-Chorus
  Q=7H=H                Q=80
  N.C.                  N.C.         Dsus2
 2/4                   4/4
   S S S S S  S S  S     Q       Q   S. S. S Q
|-10------------------|--------------5--5--5-5-----|
|----7----------------|----------7---5--5--5-5-----|
|------9-7-9s11s9p=7--|--4-----------7--7--7-7-----|
|---------------------|----------------------------|
|---------------------|----------------------------|
|---------------------|----------------------------|
|
|  S S S Q        +S     Q       Q   S. S. S E S S
|---------------------|----------------------------|
|--7-----0--------(0)-|-(7)-----(7)----------------|
|----4-6-7--------(7)-|--7-------7---4--4--4-4-4-4-|
|---------------------|--7-------7---5--5--5-5-5-5-|
|---------------------|--9-------9---5--5--5-5-5-5-|
|---------------------|--7-------7---3--3--3-3-3-3-|
|
|  <
|                        T
|  H                     W
|---------------------|----------------------------|
|---------------------|----------------------------|
|--7------------------|--7(19)---------------------|
|---------------------|----------------------------|
|---------------------|----------------------------|
|---------------------|----------------------------|


  Bsus2/F#   Bm/F#            Dsus2
   E.         Q           +S  S. S. S Q
|--9---------10----------(10)-5--5--5-5-----|
|-12---------12----------(12)-5--5--5-5-----|
|-11---------11----------(11)-7--7--7-7-----|
|-------------------------------------------|
|-------------------------------------------|
|-------------------------------------------|
|
|  S.     S.  S   E   S    S  S. S. S E S S
|-------------------------------------------|
|-(7)----(7)-(7)-(7)-(7)--(7)---------------|
|--7------7---7---7---7----7--4--4--4-4-4-4-|
|--7------7---7---7---7----7--5--5--5-5-5-5-|
|--9------9---9---9---9----9--5--5--5-5-5-5-|
|--7------7---7---7---7----7--3--3--3-3-3-3-|
|
|  >
|  T
|  W
|-------------------------------------------|
|-------------------------------------------|
|--6(18)------------------------------------|
|-------------------------------------------|
|-------------------------------------------|
|-------------------------------------------|


   Chorus
    B5
     S.     S.  S   Q    S.  S.  S   Q
||---------------------------------------|
||o--------------------------------------|
||---------------------------------------|
||---9------9---9---9----9---9---9---9---|
||o--9------9---9---9----9---9---9---9---|
||---7------7---7---7----7---7---7---7---|
|
|    S.     S.  S   Q    S.  S.  S   Q
||---------------------------------------|
||o-(7)----(7)-(7)-(7)--(7)-(7)-(7)-(7)--|
||---7------7---7---7----7---7---7---7---|
||---7------7---7---7----7---7---7---7---|
||o--9------9---9---9----9---9---9---9---|
||---7------7---7---7----7---7---7---7---|
|
|    <
|    T
|    W
||---------------------------------------|
||o--------------------------------------|
||---7(19)-------------------------------|
||---------------------------------------|
||o--------------------------------------|
||---------------------------------------|


  Dadd11/G
   S.      S.  S   Q    S.  S.  S   Q       4x
|-------------------------------------------||
|------------------------------------------o||
|-------------------------------------------||
|-(4)-----(4)-(4)-(4)--(4)-(4)-(4)-(4)------||
|--5-------5---5---5----5---5---5---5------o||
|--3-------3---3---3----3---3---3---3-------||
|
|  S.      S.  S   Q    S.  S.  S   Q       4x
|-------------------------------------------||
|------------------------------------------o||
|--4-------4---4---4----4---4---4---4-------||
|--5-------5---5---5----5---5---5---5-------||
|--5-------5---5---5----5---5---5---5------o||
|--3-------3---3---3----3---3---3---3-------||
|
|  T                                T
| +H.                               Q       4x
|-------------------------------------------||
|------------------------------------------o||
|-(7(19))---------------------------6(18)---||
|-------------------------------------------||
|------------------------------------------o||
|-------------------------------------------||


  B5
                                    >
   S   S  S  S   S  S  H     +E    +W           +W
|--------------------------------|------------|--------|
|--------------------------------|------------|--------|
|--------------------------------|------------|--------|
|--9---9-----9---9-----9-----(9)-|-(9)--------|-(9)----|
|--9---9-----9---9-----9-----(9)-|-(9)--------|-(9)----|
|--7---7-----7---7-----7-----(7)-|-(7)--------|-(7)----|
|
|                                   >
|  S   S  S  S   S  S  H     +E    +W           +W
|--------------------------------|------------|--------|
|--------------------------------|------------|--------|
|-(7)-(7)---(7)-(7)---(7)----(7)-|-(7)--------|-(7)----|
|--7---7-----7---7-----7-----(7)-|-(7)--------|-(7)----|
|--9---9-----9---9-----9-----(9)-|-(9)--------|-(9)----|
|--7---7-----7---7-----7-----(7)-|-(7)--------|-(7)----|


   Outro
    Q=60
    N.C.(Bm)
    Gtr II
    S. S. S E S S S. S. S E S S
||-----0----0-0-0----0----0-0-0-|
||o----0----0-0-0----0----0-0-0-|
||-----0----0-0-0----0----0-0-0-|
||--0-----0---0-0-0-----0---0-0-|
||o-9-----9---9-9-9-----9---9-9-|
||--7-----7---7-7-7-----7---7-7-|


  N.C.(G)                        N.C.(Bm)
  S. S. S E. S S. S. S E S S  6x W          +W
|----0----0----0--0----0-0-0--||-0--------|-(0)----*|
|----0----0----0--0----0-0-0-o||-0--------|-(0)----*|
|----0----0----0--0----0-0-0--||-0--------|-(0)----*|
|-4-----4----4-------4---4-4--||-0--------|-(0)----*|
|-5-----5----5-------5---5-5-o||-9--------|-(9)----*|
|-3-----3----3-------3---3-3--||-7--------|-(7)----*|



Duration Legend
---------------
W - whole; H - half; Q - quarter; E - 8th; S - 16th; T - 32nd; X - 64th; a - acciaccatura
+ - note tied to previous; . - note dotted; .. - note double dotted
Uncapitalized letters represent notes that are staccato (1/2 duration)
Irregular groupings are notated above the duration line
Duration letters will always appear directly above the note/fret number it represents the
duration for.  Duration letters with no fret number below them represent rests.  Multi-
bar rests are notated in the form Wxn, where n is the number of bars to rest for.  Low
melody durations appear below the staff

Tablature Legend
----------------
 h   - hammer-on
 p   - pull-off
 b   - bend
 pb  - pre-bend
 r   - bend release (if no number after the r, then release immediately)
 /\  - slide into or out of (from/to "nowhere")
 s   - legato slide
 S   - shift slide
 - natural harmonic
[n]  - artificial harmonic
n(n) - tapped harmonic
 ~   - vibrato
 tr  - trill
 T   - tap
 TP  - trem. picking
 PM  - palm muting
\n/  - tremolo bar dip; n = amount to dip
 \n  - tremolo bar down
 n/  - tremolo bar up
/n\  - tremolo bar inverted dip
 =   - hold bend; also acts as connecting device for hammers/pulls
 <> - volume swell (louder/softer)
 x   - on rhythm slash represents muted slash
 o   - on rhythm slash represents single note slash

Misc Legend
-----------
 |  - bar
||  - double bar
||o - repeat start
o|| - repeat end
*|  - double bar (ending)
 :  - bar (freetime)
 $  - Segno
 &  - Coda
Tempo markers -  = BPM(8/16=s8/s16), where s8 = swing 8ths, s16 = swing 16ths
Comments