Alexisonfire - Side Walk When She Walks Chords & Tabs

 

Side Walk When She Walks Chords & Tabs

Alexisonfire Chords & Tabs

Version: 2 Type: Bass Tab 0 ratings
1 star 2 stars 3 stars 4 stars 5 stars
comments

Side Walk When She Walks Bass Tab

   
Intro/Chorus 1: 0:17
  A#    F#    A#    F#     A#               F#
G------------------------|-----------------(X2)--------------|
D------------------------|-----------------------------------|
A-1--1--------1--1-------|-1111111111111111------------------|
E-------2--2--------2--2-|------------------2222222222222222-|

Pre-Verse: 0:35
  A#                 F#         C#
G-----------------------------------------|
D-----------------------------------------|
A-1*----------------/9*--------\4*--------|
E-----------------------------------------|

Verse: 0:48
  A#                F#                F         F#
G---------------------------------------------------------
D---------------------------------------------------------
A-------------------9*----------------8*--------9*--------
E-6*------------------------------------------------------

        A#                F#                F         F#
G-6---|---------------------------------------------------------|
D-----|---------------------------------------------------------|
A---4-|-------------------9*----------------8*--------9*--------|
E-----|-6*------------------------------------------------------|
[ Tab from: http://www.guitartabs.cc/tabs/a/alexisonfire/side_walk_when_she_walks_btab_ver_2.html ]
Chorus 2: 1:12
  A#    F#    A#    F#      A#                F#
G-------------------------|-------------(X2)--------------------|
D-------------------------|-------------------------------------|
A-1--1--------1--1--------|-1111111111111111--------------------|
E-------2--2--------2--2--|------------------(2)222222222222222-|
                                             (): RING OUT ON SECOND TIME.

(Crazy drum solo) 1:31

Bass Solo/Interlude: 1:38
G-------------------------------------------|
D-------------------6-----------------------|
A-4---------4*----4----------4--1*----1*----| X4
E----6-4-1------6--------4h6----2-----------|

Bridge: 2:07
  A#        F#
G--------1--------|
D------3----------|
A-1h4-------------| X12
E-----------2*----|

(Short break) 2:41

Chorus 3: 2:42
  A#    F#    A#    F#     A#               F#
G------------------------|-----------------(X2)--------------|
D------------------------|-----------------------------------|
A-1--1--------1--1-------|-1111111111111111------------------|
E-------2--2--------2--2-|------------------2222222222222222-|

Outro: 3:00
  A#               F#               A#               F#
G----------------------------------------------------------------------|
D----------------------------------------------------------------------|
A-1111111111111111------------------1111111111111111-------------------|
E------------------2222222222222222------------------2222222222222222*-|

Bass ends at 3:13.

The song then carries on for another minute and 9 seconds.
Comments