Alexisonfire - Pulmonary Archery Chords & Tabs

 

Pulmonary Archery Chords & Tabs

Alexisonfire Chords & Tabs

Version: 3 Type: Tab 0 ratings
1 star 2 stars 3 stars 4 stars 5 stars
comments

Pulmonary Archery Tab

   
PULMONARY ARCHERY
by Alexisonfire

All Guitars tuned Db Ab Db Gb Bb Eb
 Intro A
  Gtr I
|--------------|------------|--------------|----------------|
|--------------|------------|--------------|----------------|
|-----------9--|-(9)--------|-----------6--|--(6)-7---6-----|
|-------7------|------------|------4-------|-------------4--|
|--9-----------|------------|--5-----------|----------------|
|--------------|------------|--------------|----------------|
|
| Gtr II
|-----------9--|-(9)--------|----------12--|-(12)-----------|
|------10------|------------|------9-------|----------------|
|-11-----------|------------|-11-----------|----------------|
|--------------|------------|--------------|----------------|
|--------------|------------|--------------|----------------|
|--------------|------------|--------------|----------------|


  F#m7                          Dmaj7
|--------------|--------------|--------------|------------------|
|--------------|---------9----|--------------|------------------|
|-----------9--|-(9)----------|-----------6--|--(6)--7---6--4---|
|-------7------|--------------|------4-------|------------------|
|--9-----------|--------------|--5-----------|------------------|
|--------------|--------------|--------------|------------------|
|
|-----------9--|-(9)----------|----------12--|-(12)s14---9------|
|------10------|--------12----|------9-------|------------------|
|-11-----------|--------------|-11-----------|------------------|
|--------------|--------------|--------------|------------------|
|--------------|--------------|--------------|------------------|
|--------------|--------------|--------------|------------------|


  F#m7                        Dmaj7
|--------------|------------|--------------|-----------------|
|--------------|------------|--------------|-----------------|
|-----------9--|-(9)--------|-----------6--|--(6)-7---6------|
|-------7------|------------|------4-------|-------------4---|
|--9-----------|------------|--5-----------|-----------------|
|--------------|------------|--------------|-----------------|
|
|-----------9--|-(9)--------|----------12--|-(12)------------|
|------10------|------------|------9-------|-----------------|
|-11-----------|------------|-11-----------|-----------------|
|--------------|------------|--------------|-----------------|
|--------------|------------|--------------|-----------------|
|--------------|------------|--------------|-----------------|


  F#m7                         Dmaj7
|--------------|-------------|--------------|-----------------|
|--------------|--------9----|--------------|-----------------|
|-----------9--|-(9)---------|-----------6--|--(6)-7---6------|
|-------7------|-------------|------4-------|-------------4---|
|--9-----------|-------------|--5-----------|-----------------|
|--------------|-------------|--------------|-----------------|
|
|-----------9--|-(9)---------|----------12--|-(12)------------|
|------10------|-------------|------9-------|-----------------|
|-11-----------|-------------|-11-----------|-----------------|
|--------------|-------------|--------------|-----------------|
|--------------|-------------|--------------|-----------------|
|--------------|-------------|--------------|-----------------|


 Intro B
  N.C.                                         Dadd9
|---9----7---/12--|-(12)-9---7--9--|--7----9----5--|--(5)----|
|-----------------|----------------|---------------|---------|
|-----------------|----------------|---------------|---------|
|-----------------|----------------|---------------|---------|
|-----------------|----------------|---------------|---------|
|-----------------|----------------|---------------|---------|
|
|-(12)------------|-(12)-----------|-----------12--|-(12)----|
|-----------------|----------------|------10---10--|-(10)----|
|-----------------|----------------|-11--------11--|-(11)----|
|-----------------|----------------|------------0--|--(0)----|
|-----------------|----------------|------------0--|--(0)----|
|-----------------|----------------|------------0--|--(0)----|


                                     N.C.      Dadd9
|---9----7---/12--|-(12)-9---7--9--|--7----9----5--|--(5)----|
|-----------------|----------------|---------------|---------|
|-----------------|----------------|---------------|---------|
|-----------------|----------------|---------------|---------|
|-----------------|----------------|---------------|---------|
|-----------------|----------------|---------------|---------|
|
|-(12)------------|-(12)-----------|-----------12--|-(12)----|
|-(10)------------|-(10)-----------|------10---10--|-(10)----|
|-(11)------------|-(11)-----------|-11--------11--|-(11)----|
|--(0)------------|--(0)-----------|------------0--|--(0)----|
|--(0)------------|--(0)-----------|------------0--|--(0)----|
|--(0)------------|--(0)-----------|------------0--|--(0)----|


 Intro C
  F#m7                        Dmaj7
  Gtr III
|--------------|------------|--------------|
|--------------|------------|--------------|
|-----------9--|-(9)--------|-----------6--|
|-------7------|------------|------4-------|
|--9-----------|------------|--5-----------|
|--------------|------------|--------------|
|
| Gtr IV
|-----------9--|-(9)--------|----------12--|
|------10------|------------|------9-------|
|-11-----------|------------|-11-----------|
|--------------|------------|--------------|
|--------------|------------|--------------|
|--------------|------------|--------------|


                F#m7
|-------------|------------|-------------|
|-------------|------------|-------------|
|--(6)--------|---------9--|-(9)---------|
|-------------|-----7------|-------------|
|-------------|-9----------|-------------|
|-------------|------------|-------------|
|
|-(12)--------|------------|-------------|
|-------------|------------|-------------|
|-------------|---------6--|-(6)----4----|
|-------------|-----7------|-------------|
|-------------|-9----------|-------------|
|-------------|------------|-------------|


           Intro D
          Q=200
  N.C.
 3/4       4/4
|---------|-9-9-9-9-9-9-9-9-9-9-9-9-9-9-9-9-|-9-9-9-9-9-9-9-9-9-9-9-9-|
|---------|---------------------------------|-------------------------|
|---------|---------------------------------|-------------------------|
|-----4---|---------------------------------|-------------------------|
|-5-------|---------------------------------|-------------------------|
|---------|---------------------------------|-------------------------|
|
|---------|---------------------------------|-------------------------|
|---------|---------------------------------|-------------------------|
|---------|---------------------------------|-------------------------|
|-----4---|---------------------------------|-------------------------|
|-5-------|---------------------------------|-------------------------|
|---------|---------------------------------|-------------------------|


|--9--9--9--9--9--9-9--9-|--9-9--9--9--9--9--9--9-|
|------------------------|------------------------|
|------------------------|------------------------|
|------------------------|------------------------|
|------------------------|------------------------|
|------------------------|------------------------|
|
|  PM---|      PM|
|-------------------9----|----9-------------------|
|----------10---------10-|------10----12-10----12-|
|-11-11-11----11-11------|-11------11-------11----|
|------------------------|------------------------|
|------------------------|------------------------|
|------------------------|------------------------|
|
| Gtr V
|------------------------|------------------------|
|------------------------|------------------------|
|------------------------|------------------------|
|------------------------|------------------------|
|------------------------|------------------------|
|------------------------|------------------------|


|--9-----9--9------9-----9--9-------9----9-|---9---9-9--9--9-9--9-9-|
|------------------------------------------|------------------------|
|------------------------------------------|------------------------|
|------------------------------------------|------------------------|
|------------------------------------------|------------------------|
|------------------------------------------|------------------------|
|
|  PM------|             PM|
|----------------------------------12------|------12------12--------|
|------------------9---------------------9-|---------9-------9----9-|
|-11----11-11-----------11-11--------------|--11-------11------11---|
|------------------------------------------|------------------------|
|------------------------------------------|------------------------|
|------------------------------------------|------------------------|
|
|--9s12-------(12)-9s12-------(12)--9s12---|-(12)-------------------|
|------------------------------------------|------------------------|
|------------------------------------------|------------------------|
|------------------------------------------|------------------------|
|------------------------------------------|------------------------|
|------------------------------------------|------------------------|


|--9--9--9--9--9---------|-(9)---------------------|
|------------------------|-------------------------|
|------------------------|-------------------------|
|------------------------|-------------------------|
|------------------------|-------------------------|
|------------------------|-------------------------|
|
|  PM---|      PM|
|-------------------9----|-----9-------------------|
|----------10---------10-|-------10----12-10----12-|
|-11-11-11----11-11------|-11-------11-------11----|
|------------------------|-------------------------|
|------------------------|-------------------------|
|------------------------|-------------------------|


|-(9)--------------------|-(9)--------------------|
|------------------------|------------------------|
|------------------------|------------------------|
|------------------------|------------------------|
|------------------------|------------------------|
|------------------------|------------------------|
|
|  PM----|     PM|
|-------------------12---|-----12------12---------|
|-----------9----------9-|--------9-------9----9--|
|-11--11-11---11-11------|-11-------11------11----|
|------------------------|------------------------|
|------------------------|------------------------|
|------------------------|------------------------|

[ Tab from: http://www.guitartabs.cc/tabs/a/alexisonfire/pulmonary_archery_tab_ver_3.html ]
   Verse A
||---9-9-9--7-7-7-12-12-|-12--9-9-9-7-7-9-9-|
||o---------------------|-------------------|
||----------------------|-------------------|
||----------------------|-------------------|
||o---------------------|-------------------|
||----------------------|-------------------|
|
||-----------------9----|-(9)---------------|
||o--------10-----------|-------------------|
||--11------------------|-------------------|
||----------------------|-------------------|
||o---------------------|-------------------|
||----------------------|-------------------|


|--7-7-7-9-9-9--5-5-|---5--5-5-5-7-7-5-5--||
|-------------------|--------------------o||
|-------------------|---------------------||
|-------------------|---------------------||
|-------------------|--------------------o||
|-------------------|---------------------||
|
|--------------12---|-(12)----------------||
|--------9----------|--------------------o||
|-11----------------|---------------------||
|-------------------|---------------------||
|-------------------|--------------------o||
|-------------------|---------------------||


   Verse B
    F#5                     N.C.         D5          N.C.
    PM|         PM            PM         PM|         PM            PM
||------------------|------------------|-----------------|-------------------||
||o-----------------|------------------|-----------------|------------------o||
||----------9-------|-----9---------9--|---------9-------|-----9---------9---||
||------7---------7-|-(7)-------7------|-----7---------7-|-(7)-------7-------||
||o-9-9---------9---|---------9--------|-9-9---------9---|---------9--------o||
||------------------|------------------|-----------------|-------------------||
|
||------------------|------------------|-----------------|-------------------||
||o-----------------|------------------|-----------------|------------------o||
||------------------|------------------|-----------------|--9--9-------------||
||------------------|-------7---7-9-6--|-7-7-7-7-7-7-7-7-|-------6-4-6-7-6---||
||o-4-4-4-4-4-4-4-4-|--4--4------------|-5-5-5-5-5-5-----|------------------o||
||--4-4-4-4-4-4-4-4-|--4--4------------|-----------------|-------------------||


   Chorus
    F#5   N.F#5 N.C.
||------------------|--------------------|
||o-----------------|-------10---9-------|
||--------------9-9-|-(9)------------9---|
||--------7-7-7-----|--------------------|
||o-9-9-9-----------|--------------------|
||------------------|--------------------|
|
||------------------|--------------------|
||o-----------------|--------------------|
||------------------|--------------------|
||--------6-----7-7-|--7--7--9-9-6-6-4-4-|
||o-4-4-4---4-4-----|--------------------|
||--4-4-4---4-4-----|--------------------|


  D5    N.C.
|-----------------|---------------------||
|-----------------|-------10---9-------o||
|-------------9-9-|-(9)------------9----||
|-------7-7-7-----|---------------------||
|-9-9-9-----------|--------------------o||
|-----------------|---------------------||
|
|-----------------|---------------------||
|-----------------|--------------------o||
|-----------------|--9--9---------------||
|-7-7-7-6-6-6-7-7-|--------6-4-6-7-6-4--||
|-5-5-5-----------|--------------------o||
|-----------------|---------------------||


 Verse C
  F#5              E5          F#5              E5
|------------|---------------|------------|---------------|
|------------|---------------|------------|---------------|
|---------9--|-(9)-----------|---------9--|-(9)-----------|
|-----7------|----------2----|-----7------|----------2----|
|-9----------|-----2-2--2----|-9----------|-----2-2--2----|
|------------|-----2-2--2----|------------|-----2-2--2----|
|
|------------|---------------|------------|---------------|
|------------|---------------|------------|---------------|
|------------|---------------|------------|---------------|
|-4---4---4--|-(4)------2----|-4---4---4--|-(4)------2----|
|-4---4---4--|-(4)-2-2--2----|-4---4---4--|-(4)-2-2--2----|
|-4---4---4--|-(4)-2-2--2----|-4---4---4--|-(4)-2-2--2----|


  F#5              E5          F#5
|------------|---------------|------------|--------|
|------------|---------------|------------|--------|
|---------9--|-(9)-----------|---------9--|-(9)----|
|-----7------|----------2----|-----7---7--|-(7)----|
|-9----------|-----2-2--2----|-9-------9--|-(9)----|
|------------|-----2-2--2----|------------|--------|
|
|------------|---------------|------------|--------|
|------------|---------------|------------|--------|
|------------|---------------|------------|--------|
|-4---4---4--|-(4)------2----|-4---4---4--|--------|
|-4---4---4--|-(4)-2-2--2----|-4---4---4--|--------|
|-4---4---4--|-(4)-2-2--2----|-4---4---4--|--------|


   Verse D
    F#m7                                  D5
    PM|                                   PM|     PM    PM
                                                                            3x
||------------------|-------------------|-----------------|-----------------||
||o-----------------|-------------------|-----------------|----------------o||
||------9-----------|-(9)---------------|-----------------|-----------------||
||------7-----------|-(7)---------------|-----7-----7-----|-7---------------||
||o-9-9-9-----------|-(9)---------------|-0-0-5---0-5---0-|-5--------------o||
||------------------|-------------------|-0-0-----0-----0-|-----------------||
|
|   PM|   PM|   PM|       PM|   PM|
|                                                                           3x
||------------------|-------------------|-----------------|-----------------||
||o-----------------|-------------------|-----------------|----------------o||
||------6-----6-----|--6------6-----6-6-|---------9-9-----|-----------------||
||--4-4-4-4-4-4-4-4-|--4--4-4-4-4-4-4-4-|-4-4-6-6-----4-4-|-6-7-9-7-6-7-6---||
||o-----------------|-------------------|-----------------|----------------o||
||------------------|-------------------|-----------------|-----------------||


  F#m7                                  D5
  PM|                                   PM|
|-----------------|-------------------|-----------------|--------------------|
|-----------------|-------------------|-----------------|--------------------|
|-----9-----------|-(9)---------------|-----------------|--------------------|
|-----7-----------|-(7)---------------|-----7-----7-----|-7-----7-------(7)--|
|-9-9-9-----------|-(9)---------------|-0-0-5-----5-----|-5-----5-------(5)--|
|-----------------|-------------------|-0-0-------------|--------------------|
|
|-----------------|-------------------|-----------------|--------------------|
|-----------------|-------------------|-----------------|--------------------|
|-----6-----6-----|--6------6-----6-6-|---------9-9-----|--------------------|
|-4-4-4-4-4-4-4-4-|--4--4-4-4-4-4-4-4-|-4-4-6-6-----4-4-|-6-7-9-7-6-7-6------|
|-----------------|-------------------|-----------------|--------------------|
|-----------------|-------------------|-----------------|--------------------|


 Bridge
  F#5                E5F#E5  F#E5
  Gtrs III, IV
|-------------|------------|-------------|-----|
|-------------|------------|-------------|-----|
|-------------|------------|-------------|-----|
|-------------|------------|-------------|-----|
|-4-4-4-4-----|------2-4-2-|-4-2-2-2-----|-----|
|-4-4-4-4-----|------2-4-2-|-4-2-2-2-----|-----|


  F#5 E5F#5          E5F#5  D5
  Gtr III
|-------------|-----------|----------|----------------|
|-------------|-----------|----------|----------------|
|-------------|-----------|----------|----------------|
|-------------|-----------|----------|----------------|
|-4-4-2-4-----|------2-4--|-0--------|-(0)------------|
|-4-4-2-4-----|------2-4--|-0--------|-(0)------------|
|
| Gtr IV
|-------------|-----------|----------|----------12----|
|-------------|-----------|----------|------10--------|
|-------------|-----------|----------|-11-------------|
|-------------|-----------|----------|----------------|
|-4-4-2-4-----|------2-4--|-0--------|----------------|
|-4-4-2-4-----|------2-4--|-0--------|----------------|


  F#5                E5F#E5  F#E5
  Gtrs III, IV
|-------------|------------|-------------|-----|
|-------------|------------|-------------|-----|
|-------------|------------|-------------|-----|
|-------------|------------|-------------|-----|
|-4-4-4-4-----|------2-4-2-|-4-2-2-2-----|-----|
|-4-4-4-4-----|------2-4-2-|-4-2-2-2-----|-----|


  F#5 E5F#5          E5 F#5   D5
  Gtr III
|-------------|-------------|-----------|---------|
|-------------|-------------|-----------|---------|
|-------------|-------------|-----------|---------|
|-------------|-------------|-----------|---------|
|-4-4-2-4-----|-------2--4--|--0--------|--(0)----|
|-4-4-2-4-----|-------2--4--|--0--------|--(0)----|
|
| Gtr IV
|-------------|-------------|-12--------|-(12)----|
|-------------|---------10--|-----------|---------|
|-------------|------11-----|-----------|---------|
|-------------|-------------|-----------|---------|
|-4-4-2-4-----|-------------|-----------|---------|
|-4-4-2-4-----|-------------|-----------|---------|


   Out-Chorus
    F#5
||--9-9-9-7-7-7-12-12-|-12--9-9-9-7-7-9-9-|
||o-------------------|-------------------|
||--------------------|-------------------|
||--------------------|-------------------|
||o-------------------|-------------------|
||--------------------|-------------------|
|
|   Gtr IV
||--------------------|-------------------|
||o-------------------|-------------------|
||--------------------|-------------------|
||--4-----4---4--4----|-(4)-4-4---4---4---|
||o-4-----4---4--4----|-(4)-4-4---4---4---|
||--4-----4---4--4----|-(4)-4-4---4---4---|


  D5
                                       4x
|-7-7-7-9-9-9-5-5-|--5--5-5-5-7-7-5-5--||
|-----------------|-------------------o||
|-----------------|--------------------||
|-----------------|--------------------||
|-----------------|-------------------o||
|-----------------|--------------------||
|
|                                      4x
|-----------------|--------------------||
|-----------------|-------------------o||
|-7-----7---7-7---|-(7)-7-7---7---7----||
|-7-----7---7-7---|-(7)-7-7---7---7----||
|-5-----5---5-5---|-(5)-5-5---5---5---o||
|-----------------|--------------------||


  F#5                                 D5
|-9-9-7-7-9-9-7-7-|-9-9-7-7-9-9-7-7-|-9s12--(12)-9s12--(12)-9s12-|-(12)----*|
|-----------------|-----------------|----------------------------|---------*|
|-----------------|-----------------|----------------------------|---------*|
|-----------------|-----------------|----------------------------|---------*|
|-----------------|-----------------|----------------------------|---------*|
|-----------------|-----------------|----------------------------|---------*|
|
|-----------------|-----------------|----------------------------|---------*|
|-----------------|-----------------|----------------------------|---------*|
|-----------------|-----------------|-7--------------------------|--(7)----*|
|-4-4-4-4-4-4-4-4-|-4-4-4-4-4-4-4-4-|-7--------------------------|--(7)----*|
|-4-4-4-4-4-4-4-4-|-4-4-4-4-4-4-4-4-|-5--------------------------|--(5)----*|
|-4-4-4-4-4-4-4-4-|-4-4-4-4-4-4-4-4-|----------------------------|---------*|
Comments