Alexisonfire - No Transitory Chords & Tabs

 

No Transitory Chords & Tabs

Alexisonfire Chords & Tabs

Version: 1 Type: Tab 0 ratings
1 star 2 stars 3 stars 4 stars 5 stars
comments

No Transitory Tab


Song-> No Transitory
Band-> Alexisonfire





Intro 1
-------------------------------------------------------9b10r9--------------------------------]
-10-10---999--5-5s7---10-10---999--5-5s7-----------------------------------------------------]
---------------------------------------------------------------------------------------------] x 4
---------------------------------------------------------------------------------------------]
---------------------------------------------------------------------------------------------]
---------------------------------------------------------------------------------------------]


Intro 2
------------------------------------------------------------------------------------------------]
------------------------------------------------------------------------------------------------]
------------------------------------------------------------------------------------------------]
--9-9-9-9-9-9---9-9-9-9-9-9---6-6-6-6-6-6---(2)-------------------------------------------------] x 4
--7-7-7-7-7-7---7-7-7-7-7-7---4-4-4-4-4-4—(0)---------------------------------------------------]
------------------------------------------------------------------------------------------------]


Then into

 
------------------------------------------------------------------------------------------------]
------------------------------------------------------------------------------------------------]
------------------------------------------------------------------------------------------------]
----7-6-(2)---7-6-2s4-(4)-------4--4-4-4-4--4-4--4-4-4-4----------------------------------------] x 3
--------------------------------4--4-4-4-4--4-4--4-4-4-4----------------------------------------]
--------------------------------2--2-2-2-2--2-2--2-2-2-2----------------------------------------]

On fourth time only do 
----7-6-(2)---7-6-2s4-(4)---








------------------------------------------------------------------------------------------------]
------------------------------------------------------------------------------------------------]
----6-6-6-6-6-6---------------------------------------------------------------------------------]
----6-6-6-6-6-6-7-7-7-7-7---4--4-4-4--4-4-4--4-4-4-4-4------------------------------------------]
----4-4-4-4-4-4-7-7-7-7-7---4--4-4-4--4-4-4--4-4-4-4-4------------------------------------------]
----------------5-5-5-5-5---2--2-2-2--2-2-2--2-2-2-2-2------------------------------------------]

Verse
------------------------------------------------------------------------------------------------]
------------------------------------------------------------------------------------------------]
----------------------------------------------9-(6)----------9-6-(11)---------------------------]
----------------------------------------2s4-------------2s4-------------------------------------]
------------------------------------------------------------------------------------------------]
------------------------------------------------------------------------------------------------]
 “So this is what they call….”




------------------------------------------------------------------------------------------------]
------------------------------------------------------------------------------------------------]
------------------------------------------------------------------------------------------------]
--4--4-4-4-4--4-4-4-4--4-4---9-9-9-9-9-9-9--7-7-7-7-7-7-7---------------------------------------] x 4
--4--4-4-4-4--4-4-4-4--4-4---9-9-9-9-9-9-9--7-7-7-7-7-7-7---------------------------------------]
--2--2-2-2-2--2-2-2-2--2-2---7-7-7-7-7-7-7--5-5-5-5-5-5-5---------------------------------------]

[ Tab from: http://www.guitartabs.cc/tabs/a/alexisonfire/no_transitory_tab.html ]
---10p9-9--10p9-9--10p9-9--10p9-9--10p-9--------------------------------------------------------]
-----------------------------------------------------10------10-9-7-5-7-5-----------------------]
------------------------------------------------------------------------------------------------]
------------------------------------------------------------------------------------------------] x4
------------------------------------------------------------------------------------------------]
------------------------------------------------------------------------------------------------]



-------------------------------------------------------------------------------------------------]
-------------------------------------------------------------------------------------------------]
--------9-(6)---------9-6-(11)-------------------------------------------------------------------]
---2s4-----------2s4----------------------------4--4-4-4--4-4-4-4-4-4-4-4------------------------]
------------------------------------------------4--4-4-4--4-4-4-4-4-4-4-4------------------------]
------------------------------------------------2--2-2-2--2-2-2-2-2-2-2-2------------------------]
 “It is my most…”                                                                   “GOOOOOO”




------------------------------------------------------------------------------------------------]
------------------------------------------------------------------------------------------------]
------------------------------------------------------------------------------------------------]
--9--9-9-9-9-9-9-9--7-7-7-7-7-7-7-7----4-4-4-4-4-4-4-4------------------------------------------]
--9--9-9-9-9-9-9-9--7-7-7-7-7-7-7-7----4-4-4-4-4-4-4-4------------------------------------------]       
  7-7-7-7-7-7-7--5-5-5-5-5-5-5-5----2-2-2-2-2-2-2-2------------------------------------------]
  “Tomorrow…”



 

------------------------------------------------------------------------------------------------]
------------------------------------------------------------------------------------------------]
-----9-(6)----------9-6-(11)--------------------------------------------------------------------]
-2s4-------------2s4----------------------------------------------------------------------------]
------------------------------------------------------------------------------------------------]
------------------------------------------------------------------------------------------------]
“So now that your whole world….”



------------------------------------------------------------------------------------------------]
------------------------------------------------------------------------------------------------]
------------------------------------------------------------------------------------------------]
--9--9-9-9-9-9-9-9--7-7-7-7-7-7-7-7----4-4-4-4-4-4-4-4------------------------------------------]
--9--9-9-9-9-9-9-9--7-7-7-7-7-7-7-7----4-4-4-4-4-4-4-4------------------------------------------]        
--7--7-7-7-7-7-7-7--5-5-5-5-5-5-5-5----2-2-2-2-2-2-2-2------------------------------------------]
  “Tomorrow…”



End on a crunching
------------------------------------------------------------------------------------------------]
------------------------------------------------------------------------------------------------]
------------------------------------------------------------------------------------------------]
--4---------------------------------------------------------------------------------------------]
--4---------------------------------------------------------------------------------------------]
--2---------------------------------------------------------------------------------------------]

I give props props to anohter tabber on another site, i jus fixed it up a little
Comments