Alexisonfire - No Transitory Chords & Tabs

 

No Transitory Chords & Tabs

Alexisonfire Chords & Tabs

Version: 2 Type: Bass Tab 0 ratings
1 star 2 stars 3 stars 4 stars 5 stars
comments

No Transitory Bass Tab

   
Band: Alexisonfire
Song: No Transitory
Tabber: 555_Maggot_666

Standard Tuning (E,A,D,G)

Intro
G|-------------------------------------------------------|
D|-------------------------------------------------------| x3
A|-4-44--------4-44--------------------------------------|
E|-------5-55--------5-55---2-222-222-222--2-222-222-222-|

G|--------------------|
D|--------------------|
A|-4-44--------4-4-4~-|
E|-------5-55---------|

Verse
G|---------------------------------------------|
D|---------------------------------------------|
A|---------------------------------------------|
E|-222-2222--222--2--222--777-777-7--555-5-555-|

G|---------------------------------------------|
D|---------------------------------------------| x2 
A|---------------------------------------------|
E|-222-222--2--222-2-222--777-777-7--555-5-555-|

G|---------------------------------------|
D|---------------------------------------| 
A|---------------------------------------|
E|-222-222--2--222-2-222--777-777-7--555-|

Chorus
G|--------------------------------------------------------|
D|--------------------------------------------------------| x4
A|--------------------------------------------------------|
E|-222222222222222222222222-77777777777777-55555555555555-|

[Sick Screamo Pause]
[ Tab from: http://www.guitartabs.cc/tabs/a/alexisonfire/no_transitory_btab_ver_2.html ]
G|--------------------------------|
D|--------------------------------|
A|--------------------------------|
E|-2-222-222-222--2-222-222-222-2-|

[Second Screamo Pause "Goooooo!"]

Chrous 2
G|-----------------------------------------------------|
D|-----------------------------------------------------|
A|-----------------------------------------------------|
E|-777777777777-5555555555555-222222222222222222222222-|

G|------------------------------|
D|------------------------------|
A|------------------------------|
E|-777777777777-5555555555555-2-|

Verse 2
G|---------------------------------------------|
D|---------------------------------------------| x2 
A|---------------------------------------------|
E|-222-222--2--222-2-222--777-777-7--555-5-555-|

G|----------------------------------------|
D|----------------------------------------| 
A|----------------------------------------|
E|-222-222--2--222-2-222--777-777-7--55-0-|

Last Chrous
G|-----------------------------------------------------|
D|-----------------------------------------------------|
A|-----------------------------------------------------|
E|-777777777777-5555555555555-222222222222222222222222-|

G|-----------------------------------------------------------|
D|-----------------------------------------------------------|
A|-----------------------------------------------------------|
E|-777777777777-5555555555555-2-222-222-222--2-222-222-222-2-|

Have fun with this one!!
Comments