Alexisonfire - No Transistory Chords & Tabs

 

No Transistory Chords & Tabs

Alexisonfire Chords & Tabs

Version: 1 Type: Tab 0 ratings
1 star 2 stars 3 stars 4 stars 5 stars
comments

No Transistory Tab

Band: Alexisonfire
Song: No Transistory
Album: WATCH OUT (2004)

Tabbed by: Greg Deveau
*If you have any questions, suggestions, etc add me dj_smoke3@hotmail.com*
_____________________________________________________________________________
Introduction:

Guitar I:
|-------------|----------------------|---------------|-------------------|
|-------------|----------------------|---------------|-------------------|
|-------------|----------------------|---------------|-------------------|
|--7---7------|----------------------|-11---7--------|-------------------|
|---------7---|-(7)--7---7---7--7----|----------7s9--|-(9)-9---9----9-9--|
|-------------|----------------------|---------------|-------------------|

Guitar II:
|-------------|----------------------|---------------|-------------------|
|-------------|----------------------|---------------|-------------------|
|-------------|----------------------|---------------|-------------------|
|--11--11--11-|-(11)-11----11--11----|--7----7----7--|--(7)--------------|
|--11--11--11-|-(11)-11----11--11----|--7----7----7--|--(7)--------------|
|---9---9---9-|--(9)--9-----9---9----|--5----5----5--|--(5)--5----5--5---|
_____________________________________________________________________________

Break down:

Guitar I:
|-------------|--------------|--------------|--------------|
|-------------|--------------|--------------|--------------|
|-------------|--------------|--------------|--------------|
|-44444444----|--44444444----|--44444444----|--44444444----|
|-44444444----|--44444444----|--44444444----|--44444444----|
|-22222222----|--22222222----|--22222222----|--22222222----|


Guitar II:
|-------------|--------------|--------------|--------------|
|-------------|--------------|--------------|--------------|
|-------------|--------------|--------------|--------------|
|-44444444----|--44444444----|--44444444----|--44444444----|
|-44444444----|--44444444----|--44444444----|--44444444----|
|-22222222----|--22222222----|--22222222----|--22222222----|
_____________________________________________________________________________

Introduction prt 2:

Guitar I:
|-------------|----------------------|---------------|-------------------|
|-------------|----------------------|---------------|-------------------|
|-------------|----------------------|---------------|-------------------|
|--7---7------|----------------------|-11---7---6----|---(6)-------------|
|---------7---|-(7)--7---7---7--7----|---------------|-------------------|
|-------------|----------------------|---------------|-------------------|

Guitar II:
|-------------|----------------------|---------------|-------------------|
|-------------|----------------------|---------------|-------------------|
|-------------|----------------------|---------------|-------------------|
|--11--11--11-|-(11)-11----11--11----|--7----7----7--|--(7)--------------|
|--11--11--11-|-(11)-11----11--11----|--7----7----7--|--(7)--------------|
|---9---9---9-|--(9)--9-----9---9----|--5----5----5--|--(5)--------------|
_____________________________________________________________________________

Verse:

Guitar I:
|---------|---------|--------|--------------|
|---------|---------|--------|--------------|
|---------|---------|--------|--------------|
|--(6)----|--(6)----|--(6)---|---(6)--------|
|---------|---------|--------|--------------|
|---------|---------|--------|--------------|

Guitar II:
|---------|---------|--------|--------------|
|---------|---------|--------|--------------|
|---------|---------|--------|--------------|
|--(7)----|--(7)----|--(7)---|--(7)---------|
|--(7)----|--(7)----|--(7)---|--(7)---------|
|--(5)----|--(5)----|--(5)---|--(5)---------|


Guitar I:
|----------------|-----------|--------|------------|
|----------------|-----------|--------|------------|
|-------------9--|-(9)-------|--------|------------|
|----------------|------11---|-(11)---|--(11)------|
|-7--9--7--9-----|-----------|--------|------------|
|----------------|-----------|--------|------------|

Guitar I:
|----------------|-------------|--------|------------|
|----------------|-------------|--------|------------|
|-------------9--|-(9)------11-|--(11)--|--(11)------|
|----------------|------11-----|--------|------------|
|-7--9--7--9-----|-------------|--------|------------|
|----------------|-------------|--------|------------|
_____________________________________________________________________________

Chorus:

Guitar I:
|------------------|------------------|------------------|------------------|
|-10s7--10s7--10s7-|-(10)-(7)---------|-7s10--7s10-7s10--|------------------|
|------------------|--11s9--11s9-11s9-|------------------|-11s9-11s9--11s9--|
|------------------|------------------|------------------|------------------|
|------------------|------------------|------------------|------------------|
|------------------|------------------|------------------|------------------|

Guitar II:
|-----------------|-----------------|-----------------|-----------------|
|-----------------|-----------------|-----------------|-----------------|
|-----------------|-----------------|-----------------|-----------------|
|-4-4-4-4-4-4-4-4-|-4-4-4-4-4-4-4-4-|-4-4-4-4-4-4-4-4-|-4-4-4-4-4-4-4-4-|
|-4-4-4-4-4-4-4-4-|-4-4-4-4-4-4-4-4-|-4-4-4-4-4-4-4-4-|-4-4-4-4-4-4-4-4-|
|-2-2-2-2-2-2-2-2-|-2-2-2-2-2-2-2-2-|-2-2-2-2-2-2-2-2-|-2-2-2-2-2-2-2-2-|


Guitar I:
|------------------|------------------|------------------|------------------|
|-7s10--7s10--7s10-|-(7)-(10)---------|-7s10--7s10--7s10-|-(7)--(10)--------|
|------------------|---11s9--11s9-11s9|------------------|---11s9--11s9-11s9|
|------------------|------------------|------------------|------------------|
|------------------|------------------|------------------|------------------|
|------------------|------------------|------------------|------------------|


Guitar II:
|-----------------|-----------------|-----------------|-----------------|
|-----------------|-----------------|-----------------|-----------------|
|-----------------|-----------------|-----------------|-----------------|
|-4-4-4-4-4-4-4-4-|-4-4-4-4-4-4-4-4-|-2-2-2-2-2-2-2-2-|-2-2-2-2-2-2-2-2-|
|-4-4-4-4-4-4-4-4-|-4-4-4-4-4-4-4-4-|-2-2-2-2-2-2-2-2-|-2-2-2-2-2-2-2-2-|
|-2-2-2-2-2-2-2-2-|-2-2-2-2-2-2-2-2-|-0-0-0-0-0-0-0-0-|-0-0-0-0-0-0-0-0-|


Guitar I:
|-12-10-0-12-10-0-----|-----------------|-12-10-0-12-10-0-----|-------------|
|-----------------10--|-10-7-0-10-7--7--|-----------------10--|-10-7-0-10-7-|
|---------------------|-----------------|---------------------|-------------|
|---------------------|-----------------|---------------------|-------------|
|---------------------|-----------------|---------------------|-------------|
|---------------------|-----------------|---------------------|-------------|

Guitar II:
|-----------------|-----------------|-----------------|-----------------|
|-----------------|-----------------|-----------------|-----------------|
|-----------------|-----------------|-----------------|-----------------|
|-4-4-4-4-4-4-4-4-|-4-4-4-4-4-4-4-4-|-4-4-4-4-4-4-4-4-|-4-4-4-4-4-4-4-4-|
|-4-4-4-4-4-4-4-4-|-4-4-4-4-4-4-4-4-|-4-4-4-4-4-4-4-4-|-4-4-4-4-4-4-4-4-|
|-2-2-2-2-2-2-2-2-|-2-2-2-2-2-2-2-2-|-2-2-2-2-2-2-2-2-|-2-2-2-2-2-2-2-2-|


Guitar I:
|------------------|------------------|------------------|------------------|
|-10s7--10s7--10s7-|-(10)-(7)---------|-7s10--7s10-7s10--|------------------|
|------------------|--11s9--11s9-11s9-|------------------|-11s9-11s9--11s9--|
|------------------|------------------|------------------|------------------|
|------------------|------------------|------------------|------------------|
|------------------|------------------|------------------|------------------|

Guitar II:
|-----------------|-----------------|-----------------|-----------------|
|-----------------|-----------------|-----------------|-----------------|
|-----------------|-----------------|-----------------|-----------------|
|-4-4-4-4-4-4-4-4-|-4-4-4-4-4-4-4-4-|-2-2-2-2-2-2-2-2-|-2-2-2-2-2-2-2-2-|
|-4-4-4-4-4-4-4-4-|-4-4-4-4-4-4-4-4-|-2-2-2-2-2-2-2-2-|-2-2-2-2-2-2-2-2-|
|-2-2-2-2-2-2-2-2-|-2-2-2-2-2-2-2-2-|-0-0-0-0-0-0-0-0-|-0-0-0-0-0-0-0-0-|


Guitar I:
|------------------|------------------|------------------|------------------|
|-10s7--10s7--10s7-|-(10)-(7)---------|-7s10--7s10-7s10--|------------------|
|------------------|--11s9--11s9-11s9-|------------------|-11s9-11s9--11s9--|
|------------------|------------------|------------------|------------------|
|------------------|------------------|------------------|------------------|
|------------------|------------------|------------------|------------------|

Guitar II:
|-----------------|-----------------|-----------------|-----------------|
|-----------------|-----------------|-----------------|-----------------|
|-----------------|-----------------|-----------------|-----------------|
|-4-4-4-4-4-4-4-4-|-4-4-4-4-4-4-4-4-|-4-4-4-4-4-4-4-4-|-4-4-4-4-4-4-4-4-|
|-4-4-4-4-4-4-4-4-|-4-4-4-4-4-4-4-4-|-4-4-4-4-4-4-4-4-|-4-4-4-4-4-4-4-4-|
|-2-2-2-2-2-2-2-2-|-2-2-2-2-2-2-2-2-|-2-2-2-2-2-2-2-2-|-2-2-2-2-2-2-2-2-|

[ Tab from: http://www.guitartabs.cc/tabs/a/alexisonfire/no_transistory_tab.html ]
Guitar I:
|-12-10-0-12-10-0-----|-----------------|-12-10-0-12-10-0-----|-------------|
|-----------------10--|-10-7-0-10-7--7--|-----------------10--|-10-7-0-10-7-|
|---------------------|-----------------|---------------------|-------------|
|---------------------|-----------------|---------------------|-------------|
|---------------------|-----------------|---------------------|-------------|
|---------------------|-----------------|---------------------|-------------|

Guitar II:
|-----------------|-----------------|-----------------|-----------------|
|-----------------|-----------------|-----------------|-----------------|
|-----------------|-----------------|-----------------|-----------------|
|-4-4-4-4-4-4-4-4-|-4-4-4-4-4-4-4-4-|-2-2-2-2-2-2-2-2-|-2-2-2-2-2-2-2-2-|
|-4-4-4-4-4-4-4-4-|-4-4-4-4-4-4-4-4-|-2-2-2-2-2-2-2-2-|-2-2-2-2-2-2-2-2-|
|-2-2-2-2-2-2-2-2-|-2-2-2-2-2-2-2-2-|-0-0-0-0-0-0-0-0-|-0-0-0-0-0-0-0-0-|

Guitar I:
|------------------|------------------|------------------|------------------|
|-10s7--10s7--10s7-|-(10)-(7)---------|-7s10--7s10-7s10--|------------------|
|------------------|--11s9--11s9-11s9-|------------------|-11s9-11s9--11s9--|
|------------------|------------------|------------------|------------------|
|------------------|------------------|------------------|------------------|
|------------------|------------------|------------------|------------------|

Guitar II:
|-----------------|-----------------|-----------------|-----------------|
|-----------------|-----------------|-----------------|-----------------|
|-----------------|-----------------|-----------------|-----------------|
|-4-4-4-4-4-4-4-4-|-4-4-4-4-4-4-4-4-|-4-4-4-4-4-4-4-4-|-4-4-4-4-4-4-4-4-|
|-4-4-4-4-4-4-4-4-|-4-4-4-4-4-4-4-4-|-4-4-4-4-4-4-4-4-|-4-4-4-4-4-4-4-4-|
|-2-2-2-2-2-2-2-2-|-2-2-2-2-2-2-2-2-|-2-2-2-2-2-2-2-2-|-2-2-2-2-2-2-2-2-|


Guitar I:
|------------------|------------------|------------------|------------------|
|-10s7--10s7--10s7-|-(10)-(7)---------|-7s10--7s10-7s10--|------------------|
|------------------|--11s9--11s9-11s9-|------------------|-11s9-11s9--11s9--|
|------------------|------------------|------------------|------------------|
|------------------|------------------|------------------|------------------|
|------------------|------------------|------------------|------------------|

Guitar II:
|-----------------|-----------------|-----------------|-----------------|
|-----------------|-----------------|-----------------|-----------------|
|-----------------|-----------------|-----------------|-----------------|
|-4-4-4-4-4-4-4-4-|-4-4-4-4-4-4-4-4-|-2-2-2-2-2-2-2-2-|-2-2-2-2-2-2-2-2-|
|-4-4-4-4-4-4-4-4-|-4-4-4-4-4-4-4-4-|-2-2-2-2-2-2-2-2-|-2-2-2-2-2-2-2-2-|
|-2-2-2-2-2-2-2-2-|-2-2-2-2-2-2-2-2-|-0-0-0-0-0-0-0-0-|-0-0-0-0-0-0-0-0-|
_____________________________________________________________________________

Bridge:

Guitar I:
|------------------|------------------|------------------|------------------|
|-10s7--10s7--10s7-|-(10)-(7)---------|-7s10--7s10-7s10--|------------------|
|------------------|--11s9--11s9-11s9-|------------------|-11s9-11s9--11s9--|
|------------------|------------------|------------------|------------------|
|------------------|------------------|------------------|------------------|
|------------------|------------------|------------------|------------------|

Guitar II:
|----------------|--------------|----------------|---------------|
|----------------|--------------|----------------|---------------|
|-------------9--|-(9)----------|-------------9--|--(9)----------|
|----------------|------11------|----------------|-------(11)----|
|-7--9--7--9-----|--------------|-7--9--7--9-----|---------------|
|----------------|--------------|----------------|---------------|

Guitar I:
|-----------------|-----------------|-----------------|-----------------|
|-----------------|-----------------|-----------------|-----------------|
|-----------------|-----------------|-----------------|-----------------|
|-4-4-4-4-4-4-4-4-|-4-4-4-4-4-4-4-4-|-4-4-4-4-4-4-4-4-|-4-4-4-4-4-4-4-4-|
|-4-4-4-4-4-4-4-4-|-4-4-4-4-4-4-4-4-|-4-4-4-4-4-4-4-4-|-4-4-4-4-4-4-4-4-|
|-2-2-2-2-2-2-2-2-|-2-2-2-2-2-2-2-2-|-2-2-2-2-2-2-2-2-|-2-2-2-2-2-2-2-2-|

Guitar II:

|----------------|--------------|----------------|---------------|
|----------------|--------------|----------------|---------------|
|----------------|--------------|----------------|---------------|
|-4--------------|--------------|----------------|---------------|
|-4--------------|--------------|----------------|---------------|
|-2--------------|--------------|----------------|---------------|
_____________________________________________________________________________

Verse:

Guitar I:
|---------|---------|--------|--------------|
|---------|---------|--------|--------------|
|---------|---------|--------|--------------|
|---7-----|--(7)----|--(7)---|---(7)--------|
|---------|---------|--------|--------------|
|---------|---------|--------|--------------|

Guitar II:
|---------|---------|--------|--------------|
|---------|---------|--------|--------------|
|---------|---------|--------|--------------|
|---4-----|--(4)----|--(4)---|--(4)---------|
|---4-----|--(4)----|--(4)---|--(4)---------|
|---2-----|--(2)----|--(2)---|--(2)---------|

Guitar I:
|----------------|-----------|--------|------------|
|----------------|-----------|--------|------------|
|-------------9--|-(9)-------|--------|------------|
|----------------|------11---|-(11)---|--(11)------|
|-7--9--7--9-----|-----------|--------|------------|
|----------------|-----------|--------|------------|

Guitar I:
|----------------|-------------|--------|------------|
|----------------|-------------|--------|------------|
|-------------9--|-(9)------11-|--(11)--|--(11)------|
|----------------|------11-----|--------|------------|
|-7--9--7--9-----|-------------|--------|------------|
|----------------|-------------|--------|------------|
_____________________________________________________________________________

Outro-Chorus:


Guitar I:
|-12-10-0-12-10-0-----|-----------------|-12-10-0-12-10-0-----|-------------|
|-----------------10--|-10-7-0-10-7--7--|-----------------10--|-10-7-0-10-7-|
|---------------------|-----------------|---------------------|-------------|
|---------------------|-----------------|---------------------|-------------|
|---------------------|-----------------|---------------------|-------------|
|---------------------|-----------------|---------------------|-------------|

Guitar II:
|-----------------|-----------------|-----------------|-----------------|
|-----------------|-----------------|-----------------|-----------------|
|-----------------|-----------------|-----------------|-----------------|
|-4-4-4-4-4-4-4-4-|-4-4-4-4-4-4-4-4-|-2-2-2-2-2-2-2-2-|-2-2-2-2-2-2-2-2-|
|-4-4-4-4-4-4-4-4-|-4-4-4-4-4-4-4-4-|-2-2-2-2-2-2-2-2-|-2-2-2-2-2-2-2-2-|
|-2-2-2-2-2-2-2-2-|-2-2-2-2-2-2-2-2-|-0-0-0-0-0-0-0-0-|-0-0-0-0-0-0-0-0-|


Guitar I:
|------------------|------------------|------------------|------------------|
|-10s7--10s7--10s7-|-(10)-(7)---------|-7s10--7s10-7s10--|------------------|
|------------------|--11s9--11s9-11s9-|------------------|-11s9-11s9--11s9--|
|------------------|------------------|------------------|------------------|
|------------------|------------------|------------------|------------------|
|------------------|------------------|------------------|------------------|


Guitar I:
|-----------------|-----------------|-----------------|-----------------|
|-----------------|-----------------|-----------------|-----------------|
|-----------------|-----------------|-----------------|-----------------|
|-4-4-4-4-4-4-4-4-|-4-4-4-4-4-4-4-4-|-4-4-4-4-4-4-4-4-|-4-4-4-4-4-4-4-4-|
|-4-4-4-4-4-4-4-4-|-4-4-4-4-4-4-4-4-|-4-4-4-4-4-4-4-4-|-4-4-4-4-4-4-4-4-|
|-2-2-2-2-2-2-2-2-|-2-2-2-2-2-2-2-2-|-2-2-2-2-2-2-2-2-|-2-2-2-2-2-2-2-2-|

Guitar I:
|-12-10-0-12-10-0-----|-----------------|-12-10-0-12-10-0-----|-------------|
|-----------------10--|-10-7-0-10-7--7--|-----------------10--|-10-7-0-10-7-|
|---------------------|-----------------|---------------------|-------------|
|---------------------|-----------------|---------------------|-------------|
|---------------------|-----------------|---------------------|-------------|
|---------------------|-----------------|---------------------|-------------|

Guitar II:
|-----------------|-----------------|-----------------|-----------------|
|-----------------|-----------------|-----------------|-----------------|
|-----------------|-----------------|-----------------|-----------------|
|-4-4-4-4-4-4-4-4-|-4-4-4-4-4-4-4-4-|-2-2-2-2-2-2-2-2-|-2-2-2-2-2-2-2-2-|
|-4-4-4-4-4-4-4-4-|-4-4-4-4-4-4-4-4-|-2-2-2-2-2-2-2-2-|-2-2-2-2-2-2-2-2-|
|-2-2-2-2-2-2-2-2-|-2-2-2-2-2-2-2-2-|-0-0-0-0-0-0-0-0-|-0-0-0-0-0-0-0-0-|

Guitar I:
|-----------------|-----------------|-----------------|-----------------|
|-----------------|-----------------|-----------------|-----------------|
|-----------------|-----------------|-----------------|-----------------|
|-4-4-4-4-4-4-4-4-|-4-4-4-4-4-4-4-4-|-4-4-4-4-4-4-4-4-|-4-4-4-4-4-4-4-4-|
|-4-4-4-4-4-4-4-4-|-4-4-4-4-4-4-4-4-|-4-4-4-4-4-4-4-4-|-4-4-4-4-4-4-4-4-|
|-2-2-2-2-2-2-2-2-|-2-2-2-2-2-2-2-2-|-2-2-2-2-2-2-2-2-|-2-2-2-2-2-2-2-2-|

Guitar II:
|---------------------|-----------------|-----------------|-----------------|
|-7-7-7-7-7-7-7-7-----|-7-7-7-7-7-7-7-7-|-7-7-7-7-7-7-7-7-|-7-7-7-7-7-7-7-7-|
|---------------------|-----------------|-----------------|-----------------|
|---------------------|-----------------|-----------------|-----------------|
|---------------------|-----------------|-----------------|-----------------|
|---------------------|-----------------|-----------------|-----------------|
Comments