Alexisonfire - Little Girls Pointing And Laughing Chords & Tabs

 

Little Girls Pointing And Laughing Chords & Tabs

Alexisonfire Chords & Tabs

Version: 5 Type: Tab 0 ratings
1 star 2 stars 3 stars 4 stars 5 stars
comments

Little Girls Pointing And Laughing Tab

   
#----------------------------------PLEASE NOTE---------------------------------#
#This file is the author's own work and represents their interpretation of the #
#song. You may only use this file for private study, scholarship, or research. #
#------------------------------------------------------------------------------#

LITTLE GIRLS POINTING AND LAUGHING
As recorded by Alexisonfire
(From the 2002 Album ALEXISONFIRE)

Transcribed by Cordarro Collins
	

Words and Music by Alexisonfire
Arranged by Alexisonfire

Gtr I (Eb Ab Db Gb Bb Eb) - 'Untitled'
Gtr II (Eb Ab Db Gb Bb Eb) - 'Untitled'
Gtr III (Eb Ab Db Gb Bb Eb) - 'Untitled'
Gtr IV (Eb Ab Db Gb Bb Eb) - 'Untitled'
Gtr V (Eb Ab Db Gb Bb Eb) - 'Untitled'

   Intro
    Q=210
    E5/C
   3/4
    Gtr I
    Q  E E E E   Q  E E E E   Q  E E E E   Q  E E E E
||-------------|------------|------------|------------|
||o------------|------------|------------|------------|
||--9--9-9-9-9-|-9--9-9-9-9-|-9--9-9-9-9-|-9--9-9-9-9-|
||--x--x-x-x-x-|-x--x-x-x-x-|-x--x-x-x-x-|-x--x-x-x-x-|
||o-7--7-7-7-7-|-7--7-7-7-7-|-7--7-7-7-7-|-7--7-7-7-7-|
||-------------|------------|------------|------------|
|
|   Gtr II
|   Q  E Q   E   Q  E E E E   Q  E Q   E   Q  E E E E
||--0--0-0---0-|-0--0-0-0-0-|-0--0-0---0-|-0--0-0-0-0-|
||o-0--0-0---0-|-0--0-0-0-0-|-0--0-0---0-|-0--0-0-0-0-|
||--9--9-9---9-|-9--9-9-9-9-|-9--9-9---9-|-9--9-9-9-9-|
||--9--9-9---9-|-9--9-9-9-9-|-9--9-9---9-|-9--9-9-9-9-|
||o-7--7-7---7-|-7--7-7-7-7-|-7--7-7---7-|-7--7-7-7-7-|
||--8--8-8---8-|-8--8-8-8-8-|-8--8-8---8-|-8--8-8-8-8-|


   Q   E  E  E  E    Q   E  E  E  E    Q   E  E  E  E    Q   E  E  E  E
|-----------------|-----------------|-----------------|-----------------|
|-----------------|-----------------|-----------------|-----------------|
|-12--12-12-12-12-|-12--12-12-12-12-|-11--11-11-11-11-|-11--11-11-11s16-|
|--x---x--x--x--x-|--x---x--x--x--x-|--x---x--x--x--x-|--x---x--x--xs=x-|
|-10--10-10-10-10-|-10--10-10-10-10-|--9---9--9--9--9-|--9---9--9--9s14-|
|-----------------|-----------------|-----------------|-----------------|
|
|  Q   E  Q     E    Q   E  E  E  E    Q   E  Q     E    Q   E  E  E  E
|--0---0--0-----0-|--0---0--0--0--0-|--0---0--0-----0-|--0---0--0--0--0-|
|--0---0--0-----0-|--0---0--0--0--0-|--0---0--0-----0-|--0---0--0--0--0-|
|--9---9--9-----9-|--9---9--9--9--9-|--9---9--9-----9-|--9---9--9--9--9-|
|--9---9--9-----9-|--9---9--9--9--9-|--9---9--9-----9-|--9---9--9--9--9-|
|--7---7--7-----7-|--7---7--7--7--7-|--7---7--7-----7-|--7---7--7--7--7-|
|--8---8--8-----8-|--8---8--8--8--8-|--8---8--8-----8-|--8---8--8--8--8-|


  Esus2
   Q   E  E  E  E    Q   E  E  E  E    Q   E  E  E  E    Q   E  E  E  E
|-----------------|-----------------|-----------------|-----------------|
|-----------------|-----------------|-----------------|-----------------|
|-16--16-16-16-16-|-16--16-16-16-16-|-16--16-16-16-16-|-16--16-14-14-14-|
|--x---x--x--x--x-|--x---x--x--x--x-|--x---x--x--x--x-|--x---x--x--x--x-|
|-14--14-14-14-14-|-14--14-14-14-14-|-14--14-14-14-14-|-14--14-12-12-12-|
|-----------------|-----------------|-----------------|-----------------|
|
|  Q   E  Q     E    Q   E  E  E  E    Q   E  Q     E    Q   E  E  E  E
|--0---0--0-----0-|--0---0--0--0--0-|--0---0--0-----0-|--0---0--0--0--0-|
|--0---0--0-----0-|--0---0--0--0--0-|--0---0--0-----0-|--0---0--0--0--0-|
|-11--11-11----11-|-11--11-11-11-11-|-11--11-11----11-|-11--11-11-11-11-|
|--9---9--9-----9-|--9---9--9--9--9-|--9---9--9-----9-|--9---9--9--9--9-|
|--7---7--7-----7-|--7---7--7--7--7-|--7---7--7-----7-|--7---7--7--7--7-|
|-----------------|-----------------|-----------------|-----------------|


                                        B7sus4/E          Esus2
   E  E  E  E  E  E    Q   E  E  E  E    Q   E  E  E  E    Q   E  E E  E
|-------------------|-----------------|-----------------|-----------------||
|-------------------|-----------------|-----------------|----------------o||
|-14s16-16-16-16-16-|-16--16-12-12-12-|-12--12-12-12-12-|-12--12--9-9--9--||
|--xs=x--x--x--x--x-|--x---x--x--x--x-|--x---x--x--x--x-|--x---x--x-x--x--||
|-12s14-14-14-14-14-|-14--14-10-10-10-|-10--10-10-10-10-|-10--10--7-7--7-o||
|-------------------|-----------------|-----------------|-----------------||
|
|  Q     E  Q     E    Q   E  E  E  E    Q   E  Q     E    Q   E  Q    E
|--0-----0--0-----0-|--0---0--0--0--0-|--0---0--0-----0-|--0---0--0----0--||
|--0-----0--0-----0-|--0---0--0--0--0-|-10--10-10----10-|--0---0--0----0-o||
|-11----11-11----11-|-11--11-11-11-11-|-11--11-11----11-|-11--11-11---11--||
|--9-----9--9-----9-|--9---9--9--9--9-|--9---9--9-----9-|--9---9--9----9--||
|--7-----7--7-----7-|--7---7--7--7--7-|--7---7--7-----7-|--7---7--7----7-o||
|-------------------|-----------------|-----------------|-----------------||


 Verse
  E5/C
  Q  E E E E   Q  E E E E   Q  E E E E   Q  E E E E
|------------|------------|------------|------------|
|------------|------------|------------|------------|
|-9--9-9-9-9-|-9--9-9-9-9-|-9--9-9-9-9-|-9--9-9-9-9-|
|-x--x-x-x-x-|-x--x-x-x-x-|-x--x-x-x-x-|-x--x-x-x-x-|
|-7--7-7-7-7-|-7--7-7-7-7-|-7--7-7-7-7-|-7--7-7-7-7-|
|------------|------------|------------|------------|
|
| Q  E Q   E   Q  E E E E   Q  E Q   E   Q  E E E E
|-0--0-0---0-|-0--0-0-0-0-|-0--0-0---0-|-0--0-0-0-0-|
|-0--0-0---0-|-0--0-0-0-0-|-0--0-0---0-|-0--0-0-0-0-|
|-9--9-9---9-|-9--9-9-9-9-|-9--9-9---9-|-9--9-9-9-9-|
|-9--9-9---9-|-9--9-9-9-9-|-9--9-9---9-|-9--9-9-9-9-|
|-7--7-7---7-|-7--7-7-7-7-|-7--7-7---7-|-7--7-7-7-7-|
|-8--8-8---8-|-8--8-8-8-8-|-8--8-8---8-|-8--8-8-8-8-|


   Q   E  E  E  E    Q   E  E  E  E    Q   E  E  E  E    Q   E  E  E  E
|-----------------|-----------------|-----------------|-----------------|
|-----------------|-----------------|-----------------|-----------------|
|-12--12-12-12-12-|-12--12-12-12-12-|-11--11-11-11-11-|-11--11-11-11s16-|
|--x---x--x--x--x-|--x---x--x--x--x-|--x---x--x--x--x-|--x---x--x--xs=x-|
|-10--10-10-10-10-|-10--10-10-10-10-|--9---9--9--9--9-|--9---9--9--9s14-|
|-----------------|-----------------|-----------------|-----------------|
|
|  Q   E  Q     E    Q   E  E  E  E    Q   E  Q     E    Q   E  E  E  E
|--0---0--0-----0-|--0---0--0--0--0-|--0---0--0-----0-|--0---0--0--0--0-|
|--0---0--0-----0-|--0---0--0--0--0-|--0---0--0-----0-|--0---0--0--0--0-|
|--9---9--9-----9-|--9---9--9--9--9-|--9---9--9-----9-|--9---9--9--9--9-|
|--9---9--9-----9-|--9---9--9--9--9-|--9---9--9-----9-|--9---9--9--9--9-|
|--7---7--7-----7-|--7---7--7--7--7-|--7---7--7-----7-|--7---7--7--7--7-|
|--8---8--8-----8-|--8---8--8--8--8-|--8---8--8-----8-|--8---8--8--8--8-|


  Esus2
   Q   E  E  E  E    Q   E  E  E  E    Q   E  E  E  E    Q   E  E  E  E
|-----------------|-----------------|-----------------|-----------------|
|-----------------|-----------------|-----------------|-----------------|
|-16--16-16-16-16-|-16--16-16-16-16-|-16--16-16-16-16-|-16--16-14-14-14-|
|--x---x--x--x--x-|--x---x--x--x--x-|--x---x--x--x--x-|--x---x--x--x--x-|
|-14--14-14-14-14-|-14--14-14-14-14-|-14--14-14-14-14-|-14--14-12-12-12-|
|-----------------|-----------------|-----------------|-----------------|
|
|  Q   E  Q     E    Q   E  E  E  E    Q   E  Q     E    Q   E  E  E  E
|--0---0--0-----0-|--0---0--0--0--0-|--0---0--0-----0-|--0---0--0--0--0-|
|--0---0--0-----0-|--0---0--0--0--0-|--0---0--0-----0-|--0---0--0--0--0-|
|-11--11-11----11-|-11--11-11-11-11-|-11--11-11----11-|-11--11-11-11-11-|
|--9---9--9-----9-|--9---9--9--9--9-|--9---9--9-----9-|--9---9--9--9--9-|
|--7---7--7-----7-|--7---7--7--7--7-|--7---7--7-----7-|--7---7--7--7--7-|
|-----------------|-----------------|-----------------|-----------------|


                                        B7sus4/E          Esus2
   E  E  E  E  E  E    Q   E  E  E  E    Q   E  E  E  E    Q   E  E E  E
|-------------------|-----------------|-----------------|----------------|
|-------------------|-----------------|-----------------|----------------|
|-14s16-16-16-16-16-|-16--16-12-12-12-|-12--12-12-12-12-|-12--12--9-9--9-|
|--xs=x--x--x--x--x-|--x---x--x--x--x-|--x---x--x--x--x-|--x---x--x-x--x-|
|-12s14-14-14-14-14-|-14--14-10-10-10-|-10--10-10-10-10-|-10--10--7-7--7-|
|-------------------|-----------------|-----------------|----------------|
|
|  Q     E  Q     E    Q   E  E  E  E    Q   E  Q     E    Q   E  Q    E
|--0-----0--0-----0-|--0---0--0--0--0-|--0---0--0-----0-|--0---0--0----0-|
|--0-----0--0-----0-|--0---0--0--0--0-|-10--10-10----10-|--0---0--0----0-|
|-11----11-11----11-|-11--11-11-11-11-|-11--11-11----11-|-11--11-11---11-|
|--9-----9--9-----9-|--9---9--9--9--9-|--9---9--9-----9-|--9---9--9----9-|
|--7-----7--7-----7-|--7---7--7--7--7-|--7---7--7-----7-|--7---7--7----7-|
|-------------------|-----------------|-----------------|----------------|


  E5/C
  Q  E E E E   Q  E E E E   Q  E E E E   Q  E E E E
|------------|------------|------------|------------|
|------------|------------|------------|------------|
|-9--9-9-9-9-|-9--9-9-9-9-|-9--9-9-9-9-|-9--9-9-9-9-|
|-x--x-x-x-x-|-x--x-x-x-x-|-x--x-x-x-x-|-x--x-x-x-x-|
|-7--7-7-7-7-|-7--7-7-7-7-|-7--7-7-7-7-|-7--7-7-7-7-|
|------------|------------|------------|------------|
|
| Q  E Q   E   Q  E E E E   Q  E Q   E   Q  E E E E
|-0--0-0---0-|-0--0-0-0-0-|-0--0-0---0-|-0--0-0-0-0-|
|-0--0-0---0-|-0--0-0-0-0-|-0--0-0---0-|-0--0-0-0-0-|
|-9--9-9---9-|-9--9-9-9-9-|-9--9-9---9-|-9--9-9-9-9-|
|-9--9-9---9-|-9--9-9-9-9-|-9--9-9---9-|-9--9-9-9-9-|
|-7--7-7---7-|-7--7-7-7-7-|-7--7-7---7-|-7--7-7-7-7-|
|-8--8-8---8-|-8--8-8-8-8-|-8--8-8---8-|-8--8-8-8-8-|


   Q   E  E  E  E    Q   E  E  E  E    Q   E  E  E  E    Q   E  E  E  E
|-----------------|-----------------|-----------------|-----------------|
|-----------------|-----------------|-----------------|-----------------|
|-12--12-12-12-12-|-12--12-12-12-12-|-11--11-11-11-11-|-11--11-11-11s16-|
|--x---x--x--x--x-|--x---x--x--x--x-|--x---x--x--x--x-|--x---x--x--xs=x-|
|-10--10-10-10-10-|-10--10-10-10-10-|--9---9--9--9--9-|--9---9--9--9s14-|
|-----------------|-----------------|-----------------|-----------------|
|
|  Q   E  Q     E    Q   E  E  E  E    Q   E  Q     E    Q   E  E  E  E
|--0---0--0-----0-|--0---0--0--0--0-|--0---0--0-----0-|--0---0--0--0--0-|
|--0---0--0-----0-|--0---0--0--0--0-|--0---0--0-----0-|--0---0--0--0--0-|
|--9---9--9-----9-|--9---9--9--9--9-|--9---9--9-----9-|--9---9--9--9--9-|
|--9---9--9-----9-|--9---9--9--9--9-|--9---9--9-----9-|--9---9--9--9--9-|
|--7---7--7-----7-|--7---7--7--7--7-|--7---7--7-----7-|--7---7--7--7--7-|
|--8---8--8-----8-|--8---8--8--8--8-|--8---8--8-----8-|--8---8--8--8--8-|


  Esus2
   Q   E  E  E  E    Q   E  E  E  E    Q   E  E  E  E    Q   E  E  E  E
|-----------------|-----------------|-----------------|-----------------|
|-----------------|-----------------|-----------------|-----------------|
|-14--14-14-14-14-|-14--14-14-14-14-|-14--14-14-14-14-|-14--14-11-11-11-|
|--x---x--x--x--x-|--x---x--x--x--x-|--x---x--x--x--x-|--x---x--x--x--x-|
|-12--12-12-12-12-|-12--12-12-12-12-|-12--12-12-12-12-|-12--12--9--9--9-|
|-----------------|-----------------|-----------------|-----------------|
|
|  Q   E  Q     E    Q   E  E  E  E    Q   E  Q     E    Q   E  E  E  E
|--0---0--0-----0-|--0---0--0--0--0-|--0---0--0-----0-|--0---0--0--0--0-|
|--0---0--0-----0-|--0---0--0--0--0-|--0---0--0-----0-|--0---0--0--0--0-|
|-11--11-11----11-|-11--11-11-11-11-|-11--11-11----11-|-11--11-11-11-11-|
|--9---9--9-----9-|--9---9--9--9--9-|--9---9--9-----9-|--9---9--9--9--9-|
|--7---7--7-----7-|--7---7--7--7--7-|--7---7--7-----7-|--7---7--7--7--7-|
|-----------------|-----------------|-----------------|-----------------|


   Q   E  E  E  E    Q    E  E  E  E
|-----------------|------------------|
|-----------------|------------------|
|-12--12-12-12-12-|-12---12-12-12-12-|
|-12--12-12-12-12-|-12---12-12-12-12-|
|-10--10-10-10-10-|-10---10-10-10-10-|
|-----------------|------------------|
|
|  Q   E  Q     E    Q    E  E  E  E
|--0---0--0-----0-|--0----0--0--0--0-|
|--0---0--0-----0-|--0----0--0--0--0-|
|-11--11-11----11-|-11---11-11-11-11-|
|--9---9--9-----9-|--9----9--9--9--9-|
|--7---7--7-----7-|--7----7--7--7--7-|
|-----------------|------------------|
|
| Gtrs III, IV
|  W                 H.
|-----------------|------------------|
|-----------------|------------------|
|-----------------|------------------|
|-----------------|--9---------------|
|-----------------|------------------|
|-----------------|------------------|


  B7sus4/E                Esus2
   Q      E   E  E   E     Q      E   E  E   E
|-----------------------|-----------------------|
|-----------------------|-----------------------|
|--9------9---9--9---9--|--9------9---9--9---9--|
|--9------9---9--9---9--|--9------9---9--9---9--|
|--7------7---7--7---7--|--7------7---7--7---7--|
|-----------------------|-----------------------|
|
|  Q      E   Q      E     Q      E   Q      E
|--0------0---0------0--|--0------0---0------0--|
|-10-----10--10-----10--|--0------0---0------0--|
|-11-----11--11-----11--|-11-----11--11-----11--|
|--9------9---9------9--|--9------9---9------9--|
|--7------7---7------7--|--7------7---7------7--|
|-----------------------|-----------------------|
|
|  TP TP  TP  TP TP  TP    TP TP  TP  TP TP  TP
|  E  E   E   E  E   E     E  E   E   E  E   E
|-----------------------|-----------------------|
|-----------------------|-----------------------|
|-----------------------|-----------------------|
|-----------------------|-----------------------|
|--x\-x\--x\--x\-x\--x\-|--x\-x\--x\--x\-x\--x\-|
|--x\-x\--x\--x\-x\--x\-|--x\-x\--x\--x\-x\--x\-|


   Bridge
    N.C.
    Gtr III
     Q.      +E   Q      q     q    q
||--------------------|------------------|
||o-------------------|------------------|
||--16b17r==(16)-16---|-16----16---16----|
||---x-------(x)------|--x-----x----x----|
||o-14b15r==(14)-14---|-14----14---14----|
||--------------------|------------------|
|
|   Gtr IV
|    Q.      +E   E E    E  E  E E  E  E
||--------------------|------------------|
||o-------------------|------------------|
||--------------------|------------------|
||--------------------|------------------|
||o--9b10r===(9)--9-9-|-10-12-10-9-10-12-|
||--------------------|------------------|


   Q.      +Q     E    q     q    q
|-------------------|--------------------||
|-------------------|-------------------o||
|-16b17r==(16)---16-|-16----16---16------||
|--x-------(x)------|--x-----x----x------||
|-14b15r==(14)---14-|-14----14---14-----o||
|-------------------|--------------------||
|
|  Q.      +E  E  E    E  E  E E  E  E
|-------------------|--------------------||
|-------------------|-------------------o||
|-------------------|--------------------||
|-------------------|--------------------||
|--9b10r===(9)-9--9-|-10-12-10-9-10-12--o||
|-------------------|--------------------||


  E5          N.C.               E5
  Q  E E Q     Q    E  E  E  E    Q   E  E  E  E    Q   E E E E
|-----------|------------------|-----------------|--------------|
|-----------|------------------|-----------------|--------------|
|-----------|-11---11-11-11-11-|-12--12-12-12-12-|--7---7-7-7-7-|
|-2--2-2-2--|--x----x--x--x--x-|--x---x--x--x--x-|--x---x-x-x-x-|
|-2--2-2-2--|--9----9--9--9--9-|-10--10-10-10-10-|--5---5-5-5-5-|
|-0--0-0-0--|------------------|-----------------|--------------|
|
| Q  E E Q     H.                 Q   E  E  Q       H.
|-----------|------------------|-----------------|--------------|
|-----------|------------------|-----------------|--------------|
|-----------|-11---------------|-----------------|-14-----------|
|-2--2-2-2--|--x---------------|--2---2--2--2----|--x-----------|
|-2--2-2-2--|--9---------------|--2---2--2--2----|-12-----------|
|-0--0-0-0--|------------------|--0---0--0--0----|--------------|


  E5          N.C.
  Q  E E Q     Q   E  E  E  E    Q   E  E  E  E    Q   E  E  Q
|-----------|-----------------|-----------------|---------------|
|-----------|-----------------|-----------------|---------------|
|-----------|-11--11-11-11-11-|-12--12-12-12-12-|-14--14-14-14--|
|-2--2-2-2--|--x---x--x--x--x-|--x---x--x--x--x-|--x---x--x--x--|
|-2--2-2-2--|--9---9--9--9--9-|-10--10-10-10-10-|-12--12-12-12--|
|-0--0-0-0--|-----------------|-----------------|---------------|
|
| Q  E E Q     Q   E  E  E  E    Q   E  E  E  E    Q   E  E  Q
|-----------|-----------------|-----------------|---------------|
|-----------|-----------------|-----------------|---------------|
|-----------|-11--11-11-11-11-|-12--12-12-12-12-|-14--14-14-14--|
|-2--2-2-2--|--x---x--x--x--x-|--x---x--x--x--x-|--x---x--x--x--|
|-2--2-2-2--|--9---9--9--9--9-|-10--10-10-10-10-|-12--12-12-12--|
|-0--0-0-0--|--0---0--0--0--0-|--0---0--0--0--0-|--0---0--0--0--|


    N.C.
    Gtr III
     Q.      +E   Q      q     q    q
||--------------------|------------------|
||o-------------------|------------------|
||--16b17r==(16)-16---|-16----16---16----|
||---x-------(x)------|--x-----x----x----|
||o-14b15r==(14)-14---|-14----14---14----|
||--------------------|------------------|
|
|   Gtr IV
|    Q.      +E   E E    E  E  E E  E  E
||--------------------|------------------|
||o-------------------|------------------|
||--------------------|------------------|
||--------------------|------------------|
||o--9b10r===(9)--9-9-|-10-12-10-9-10-12-|
||--------------------|------------------|


   Q.      +Q     E    q     q    q
|-------------------|--------------------||
|-------------------|-------------------o||
|-16b17r==(16)---16-|-16----16---16------||
|--x-------(x)------|--x-----x----x------||
|-14b15r==(14)---14-|-14----14---14-----o||
|-------------------|--------------------||
|
|  Q.      +E  E  E    E  E  E E  E  E
|-------------------|--------------------||
|-------------------|-------------------o||
|-------------------|--------------------||
|-------------------|--------------------||
|--9b10r===(9)-9--9-|-10-12-10-9-10-12--o||
|-------------------|--------------------||


  E5          N.C.               E5                N.C.
  Q  E E Q     Q    E  E  E  E    Q   E  E  E  E    Q   E E E E
|-----------|------------------|-----------------|--------------|
|-----------|------------------|-----------------|--------------|
|-----------|-11---11-11-11-11-|-12--12-12-12-12-|--7---7-7-7-7-|
|-2--2-2-2--|--x----x--x--x--x-|--x---x--x--x--x-|--x---x-x-x-x-|
|-2--2-2-2--|--9----9--9--9--9-|-10--10-10-10-10-|--5---5-5-5-5-|
|-0--0-0-0--|------------------|-----------------|--------------|
|
| Q  E E Q     H.                 Q   E  E  Q       H.
|-----------|------------------|-----------------|--------------|
|-----------|------------------|-----------------|--------------|
|-----------|-11---------------|-----------------|-14-----------|
|-2--2-2-2--|--x---------------|--2---2--2--2----|--x-----------|
|-2--2-2-2--|--9---------------|--2---2--2--2----|-12-----------|
|-0--0-0-0--|------------------|--0---0--0--0----|--------------|


  E5          N.C.
  Q  E E Q     Q   E  E  E  E    Q   E  E  E  E    Q     E  E  Q
|-----------|-----------------|-----------------|---------------------|
|-----------|-----------------|-----------------|---------------------|
|-----------|-11--11-11-11-11-|-12--12-12-12-12-|-16----16-16-16------|
|-2--2-2-2--|--x---x--x--x--x-|--x---x--x--x--x-|--x-----x--x--x------|
|-2--2-2-2--|--9---9--9--9--9-|-10--10-10-10-10-|-14----14-14-14------|
|-0--0-0-0--|-----------------|-----------------|---------------------|
|
| Q  E E Q     Q   E  E  E  E    Q   E  E  E  E    E  H           +E
|-----------|-----------------|-----------------|---------------------|
|-----------|-----------------|-----------------|---------------------|
|-----------|-11--11-11-11-11-|-12--12-12-12-12-|-19s21----------(21)-|
|-2--2-2-2--|--x---x--x--x--x-|--x---x--x--x--x-|--xs=x-----------(x)-|
|-2--2-2-2--|--9---9--9--9--9-|-10--10-10-10-10-|-17s19----------(19)-|
|-0--0-0-0--|--0---0--0--0--0-|--0---0--0--0--0-|---------------------|


   Interlude
    C5          N.C.          C5          N.C.
    PM------|                 PM------|
    E q  q  E   E E E E E E   E q  q  E   E E E E E E
||------------|-------------|-----------|--------------|
||o-----------|-------------|-----------|--------------|
||------------|-7h9---------|-----------|-7h9----------|
||--5-5--5--5-|-----7h9-7h9-|-5-5--5--5-|-----7h9-7h9--|
||o-3-3--3--3-|-------------|-3-3--3--3-|--------------|
||------------|-------------|-----------|--------------|
|
|   PM------|                 PM------|
|   E q  q  E   E E E E E E   E q  q  E   E E E E E E
||------------|-------------|-----------|--------------|
||o-----------|-------------|-----------|--------------|
||------------|-----7-------|-----------|-----7--------|
||--5-5--5--5-|-7h9---9-7h9-|-5-5--5--5-|-7h9---9-7h9--|
||o-3-3--3--3-|-------------|-3-3--3--3-|--------------|
||------------|-------------|-----------|--------------|


  C5          N.C.          C5          N.C.
  PM------|                 PM------|
  E q  q  E   E E E E E E   E q  q  E   E E E E E E
|-----------|-------------|-----------|-------------|
|-----------|-------------|-----------|-------------|
|-----------|-7h9---------|-----------|-7h9---------|
|-5-5--5--5-|-----7h9-7h9-|-5-5--5--5-|-----7h9-7p5-|
|-3-3--3--3-|-------------|-3-3--3--3-|-------------|
|-----------|-------------|-----------|-------------|
|
| PM------|                 PM------|
| E q  q  E   E E E E E E   E q  q  E   E E E E E E
|-----------|-------------|-----------|-------------|
|-----------|-------------|-----------|-------------|
|-----------|-----7-------|-----------|-----7-------|
|-5-5--5--5-|-7h9---9-7h9-|-5-5--5--5-|-7h9---9-7p5-|
|-3-3--3--3-|-------------|-3-3--3--3-|-------------|
|-----------|-------------|-----------|-------------|


  E5          N.C.            E5          N.C.
  PM------|                   PM------|
  E q  q  E   E   E E E E E   E q  q  E   E   E E E E E
|-----------|---------------|-----------|---------------|
|-----------|-------7p5-----|-----------|-------7p5-----|
|-----------|-----------7h9-|-----------|-----------7h9-|
|-9-9--9--9-|-5-------------|-9-9--9--9-|-5-------------|
|-7-7--7--7-|-----5---------|-7-7--7--7-|-----5---------|
|-----------|---------------|-----------|---------------|
|
| PM------|                   PM------|
| E q  q  E   S S E E E E E   E q  q  E   S S E E E E E
|-----------|---------------|-----------|---------------|
|-----------|-------7p5-----|-----------|-------7p5-----|
|-----------|-7h9p7---------|-----------|-7h9p7---------|
|-9-9--9--9-|-----------7p5-|-9-9--9--9-|-----------7p5-|
|-7-7--7--7-|---------------|-7-7--7--7-|---------------|
|-----------|---------------|-----------|---------------|


  E5          N.C.            E5          N.C.
  PM------|                   PM------|
  E q  q  E   E   E E E E E   E q  q  E   E   E Q   Q
|-----------|---------------|-----------|---------------||
|-----------|-------7p5-----|-----------|--------------o||
|-----------|-----------7h9-|-----------|-------7-------||
|-9-9--9--9-|-5-------------|-9-9--9--9-|-5---------7---||
|-7-7--7--7-|-----5---------|-7-7--7--7-|-----5--------o||
|-----------|---------------|-----------|---------------||
|
| PM------|                   PM------|         ~~
| E q  q  E   S S E E E E E   E q  q  E   S S E H
|-----------|---------------|-----------|---------------||
|-----------|-------7p5-----|-----------|--------------o||
|-----------|-7h9p7---------|-----------|-7h9p7---------||
|-9-9--9--9-|-----------7p5-|-9-9--9--9-|-------7/------||
|-7-7--7--7-|---------------|-7-7--7--7-|--------------o||
|-----------|---------------|-----------|---------------||


  C5          N.C.    Bm    C5          N.C.    Bm
  PM------|                 PM------|
  E q  q  E    Q   Q   Q    E q  q  E    Q   Q   Q
|-----------|-------------|-----------|-------------|
|-----------|--8--10------|-----------|--8--10------|
|-----------|----------7--|-----------|----------7--|
|-5-5--5--5-|----------9--|-5-5--5--5-|----------9--|
|-3-3--3--3-|-------------|-3-3--3--3-|-------------|
|-----------|-------------|-----------|-------------|
|
| PM------|                 PM------|
| E q  q  E    Q   Q   Q    E q  q  E    Q   Q   Q
|-----------|-------------|-----------|-------------|
|-----------|-------------|-----------|-------------|
|-----------|-12--11------|-----------|-12--11------|
|-5-5--5--5-|---------12--|-5-5--5--5-|---------12--|
|-3-3--3--3-|-------------|-3-3--3--3-|-------------|
|-----------|-------------|-----------|-------------|


  C5          N.C.    Bm    C5          N.C.    Bm
  PM------|                 PM------|
  E q  q  E    Q   Q   Q    E q  q  E    Q   Q   Q
|-----------|-------------|-----------|-------------|
|-----------|--8--10------|-----------|--8--10------|
|-----------|----------7--|-----------|----------7--|
|-5-5--5--5-|----------9--|-5-5--5--5-|----------9--|
|-3-3--3--3-|-------------|-3-3--3--3-|-------------|
|-----------|-------------|-----------|-------------|
|
| PM------|                 PM------|
| E q  q  E    Q   Q   Q    E q  q  E    Q   Q   Q
|-----------|-------------|-----------|-------------|
|-----------|-------------|-----------|-------------|
|-----------|-12--11------|-----------|-12--11------|
|-5-5--5--5-|---------12--|-5-5--5--5-|---------12--|
|-3-3--3--3-|-------------|-3-3--3--3-|-------------|
|-----------|-------------|-----------|-------------|


  E5          N.C.             E5          N.C.
  PM------|                    PM------|
  E q  q  E    Q    Q    Q     E q  q  E    Q    Q    Q
|-----------|----------------|-----------|----------------|
|-----------|------<7>-------|-----------|------<7>-------|
|-----------|-<5>-------<7>--|-----------|-<5>-------<7>--|
|-9-9--9--9-|----------------|-9-9--9--9-|----------------|
|-7-7--7--7-|----------------|-7-7--7--7-|----------------|
|-----------|----------------|-----------|----------------|
|
| PM------|                    PM------|
| E q  q  E    Q    Q    Q     E q  q  E    Q    Q    Q
|-----------|----------------|-----------|----------------|
|-----------|------<7>-------|-----------|------<7>-------|
|-----------|-<5>-------<7>--|-----------|-<5>-------<7>--|
|-9-9--9--9-|----------------|-9-9--9--9-|----------------|
|-7-7--7--7-|----------------|-7-7--7--7-|----------------|
|-----------|----------------|-----------|----------------|


  E5          N.C.             E5          N.C.
  PM------|                    PM------|
  E q  q  E    Q    Q    Q     E q  q  E    E   E   Q    Q
|-----------|----------------|-----------|-------------------|
|-----------|------<7>-------|-----------|-----<7>-----------|
|-----------|-<5>-------<7>--|-----------|-<5>-----<7>-------|
|-9-9--9--9-|----------------|-9-9--9--9-|--------------<7>--|
|-7-7--7--7-|----------------|-7-7--7--7-|-------------------|
|-----------|----------------|-----------|-------------------|
|
| PM------|                    PM------|
| E q  q  E    Q    Q    Q     E q  q  E    E   E   Q    Q
|-----------|----------------|-----------|-------------------|
|-----------|------<7>-------|-----------|-----<7>-----------|
|-----------|-<5>-------<7>--|-----------|-<5>-----<7>-------|
|-9-9--9--9-|----------------|-9-9--9--9-|--------------<7>--|
|-7-7--7--7-|----------------|-7-7--7--7-|-------------------|
|-----------|----------------|-----------|-------------------|


  C5
  PM------------|                    PM-------|
  E q     q     E    Q    Q    Q     E  q  q  E   Q   Q  Q
|-----------------|----------------|------------|-----------|
|-----------------|----------------|------------|-----------|
|-----------------|--5----5----5---|------------|-5---5--5--|
|-5-5-----5-----5-|--5----5----5---|-5--5--5--5-|-5---5--5--|
|-3-3-----3-----3-|--3----3----3---|-3--3--3--3-|-3---3--3--|
|-----------------|----------------|------------|-----------|
|
| PM------------|                    PM-------|
| E q     q     E    Q    Q    Q     E  q  q  E   Q   Q  Q
|-----------------|----------------|------------|-----------|
|-----------------|----------------|------------|-----------|
|-----------------|----------------|------------|-----------|
|-5-5-----5-----5-|--5----5----5---|-5--5--5--5-|-5---5--5--|
|-3-3-----3-----3-|--3----3----3---|-3--3--3--3-|-3---3--3--|
|-----------------|----------------|------------|-----------|
|
| Gtr V
| Q    q     q       q    q    q     H.           H.
|-----------------|----------------|------------|-----------|
|-----------------|----------------|------------|-----------|
|-----------------|-<4>--<4>--<4>--|------------|-----------|
|-----<4>---<4>---|----------------|------------|-----------|
|-----------------|----------------|------------|-----------|
|-----------------|----------------|------------|-----------|


  PM------|              PM------|
  E q  q  E   Q  Q  Q    E q  q  E   q  Q  Q
|-----------|----------|-----------|----------|
|-----------|----------|-----------|----------|
|-----------|-5--5--5--|-----------|-5--5--5--|
|-5-5--5--5-|-5--5--5--|-5-5--5--5-|-5--5--5--|
|-3-3--3--3-|-3--3--3--|-3-3--3--3-|-3--3--3--|
|-----------|----------|-----------|----------|
|
| PM------|              PM------|
| E q  q  E   Q  Q  Q    E q  q  E   Q  Q  Q
|-----------|----------|-----------|----------|
|-----------|----------|-----------|----------|
|-----------|----------|-----------|----------|
|-5-5--5--5-|-5--5--5--|-5-5--5--5-|-5--5--5--|
|-3-3--3--3-|-3--3--3--|-3-3--3--3-|-3--3--3--|
|-----------|----------|-----------|----------|


  E5
  PM------|                 PM------|
  E q  q  E    Q   Q   Q    E q  q  E    Q   Q   Q
|-----------|-------------|-----------|-------------|
|-----------|-------------|-----------|-------------|
|-----------|--9---9---9--|-----------|--9---9---9--|
|-9-9--9--9-|--9---9---9--|-9-9--9--9-|--9---9---9--|
|-7-7--7--7-|--7---7---7--|-7-7--7--7-|--7---7---7--|
|-----------|-------------|-----------|-------------|
|
| PM------|                 PM------|
| E q  q  E    Q   Q   Q    E q  q  E    Q   Q   Q
|-----------|-------------|-----------|-------------|
|-----------|-------------|-----------|-------------|
|-----------|-11--11--11--|-----------|-11--11--11--|
|-9-9--9--9-|--9---9---9--|-9-9--9--9-|--9---9---9--|
|-7-7--7--7-|--7---7---7--|-7-7--7--7-|--7---7---7--|
|-----------|-------------|-----------|-------------|


  PM------|
  E q  q  E   Q    Q     Q     E E E E E E    E E E E E E
|-----------|---------------|--------------|--------------|
|-----------|---------------|--------------|--------------|
|-----------|-9----9-----9--|--9-9-9-9-9-9-|--9-9-9-9-9-9-|
|-9-9--9--9-|-9----9-----9--|--9-9-9-9-9-9-|--9-9-9-9-9-9-|
|-7-7--7--7-|-7----7-----7--|--7-7-7-7-7-7-|--7-7-7-7-7-7-|
|-----------|---------------|--------------|--------------|
|
| PM------|
| E q  q  E   Q.     +E  Q     E Q   Q   E    E Q   Q   E
|-----------|---------------|-10-----------|-10-----------|
|-----------|------------7--|----7---7---7-|----7---7---7-|
|-----------|---------------|--------------|--------------|
|-9-9--9--9-|-7b9r===(7)----|--------------|--------------|
|-7-7--7--7-|---------------|--------------|--------------|
|-----------|---------------|--------------|--------------|


   Chorus
    C5
     Q   E  Q   E    Q   E  E  E  E    Q   E  Q   E    Q   E  E  E  E
||----------------|-----------------|---------------|------------------|
||o---------------|-----------------|---------------|------------------|
||---5---5--5---5-|--5---5--5--5--5-|--5---5--5---5-|--5---5--5--5--5--|
||---5---5--5---5-|--5---5--5--5--5-|--5---5--5---5-|--5---5--5--5--5--|
||o--3---3--3---3-|--3---3--3--3--3-|--3---3--3---3-|--3---3--3--3--3--|
||----------------|-----------------|---------------|------------------|
|
|    Q   E  Q   E    Q   E  E  E  E    Q   E  Q   E    Q   E  E  E  E
||----------------|-----------------|---------------|------------------|
||o---------------|-----------------|---------------|------------------|
||--12--12-12--12-|-12--12-12-12-12-|-12--12-12--12-|-12--12-12-12-12--|
||--12--12-12--12-|-12--12-12-12-12-|-12--12-12--12-|-12--12-12-12-12--|
||o-10--10-10--10-|-10--10-10-10-10-|-10--10-10--10-|-10--10-10-10-10--|
||----------------|-----------------|---------------|------------------|

[ Tab from: http://www.guitartabs.cc/tabs/a/alexisonfire/little_girls_pointing_and_laughing_tab_ver_5.html ]
  G/B
   Q   E  Q   E    Q   E  E  E  E    Q   E  Q   E    Q   E  E  E  E
|---------------|-----------------|---------------|-----------------|
|---------------|-----------------|---------------|-----------------|
|--4---4--4---4-|--4---4--4--4--4-|--4---4--4---4-|--4---4--4--4--4-|
|--5---5--5---5-|--5---5--5--5--5-|--5---5--5---5-|--5---5--5--5--5-|
|--2---2--2---2-|--2---2--2--2--2-|--2---2--2---2-|--2---2--2--2--2-|
|---------------|-----------------|---------------|-----------------|
|
|  Q   E  Q   E    Q   E  E  E  E    Q   E  Q   E    Q   E  E  E  E
|---------------|-----------------|---------------|-----------------|
|---------------|-----------------|---------------|-----------------|
|-11--11-11--11-|-11--11-11-11-11-|-11--11-11--11-|-11--11-11-11-11-|
|-12--12-12--12-|-12--12-12-12-12-|-12--12-12--12-|-12--12-12-12-12-|
|--9---9--9---9-|--9---9--9--9--9-|--9---9--9---9-|--9---9--9--9--9-|
|---------------|-----------------|---------------|-----------------|


  E5           Esus2
  Q  E E Q      Q   E  E  E  E    Q   E  E  E  E   Q  E  Q.
|------------|-----------------|-----------------|--------------|
|------------|-----------------|-----------------|--------------|
|------------|-11--11-11-11-11-|-12--12-12-12-12-|-7------------|
|-2--2-2-2---|--x---x--x--x--x-|--x---x--x--x--x-|-x------------|
|-2--2-2-2---|--9---9--9--9--9-|-10--10-10-10-10-|-5--5s14\-----|
|-0--0-0-0---|--0---0--0--0--0-|--0---0--0--0--0-|-0------------|
|
| Q  E Q   E    Q   E  E  E  E    Q   E  Q     E   Q  E  E  E E
|------------|-----------------|-----------------|--------------|
|-7--7-7---7-|--7---7--7--7--7-|--7---7--7-----7-|-7--7--7--7-7-|
|-9--9-9---9-|--9---9--9--9--9-|--9---9--9-----9-|-9--9--9--9-9-|
|-9--9-9---9-|--9---9--9--9--9-|--9---9--9-----9-|-9--9--9--9-9-|
|-7--7-7---7-|--7---7--7--7--7-|--7---7--7-----7-|-7--7--7--7-7-|
|------------|-----------------|-----------------|--------------|


  Gadd11/C
  Q  E E Q      Q   E  E  E  E    Q   E  E  E  E    Q   E  E  Q
|------------|-----------------|-----------------|-----------------||
|------------|-----------------|-----------------|----------------o||
|------------|-11--11-11-11-11-|-12--12-12-12-12-|-16--16-16-16----||
|-2--2-2-2---|--x---x--x--x--x-|--x---x--x--x--x-|--x---x--x--x----||
|-2--2-2-2---|--9---9--9--9--9-|-10--10-10-10-10-|-14--14-14-14---o||
|-0--0-0-0---|-----------------|-----------------|-----------------||
|
| Q  E Q   E    Q   E  E  E  E    Q   E  Q     E    Q   E  E  E E
|------------|-----------------|-----------------|-----------------||
|-0--0-0---0-|--0---0--0--0--0-|--0---0--0-----0-|--0---0--0--0-0-o||
|-5--5-5---5-|--5---5--5--5--5-|--5---5--5-----5-|--5---5--5--5-5--||
|-5--5-5---5-|--5---5--5--5--5-|--5---5--5-----5-|--5---5--5--5-5--||
|-3--3-3---3-|--3---3--3--3--3-|--3---3--3-----3-|--3---3--3--3-3-o||
|------------|-----------------|-----------------|-----------------||


 Interlude
  C5          N.C.
  PM------|
  E q  q  E    Q    H         +H.          Q    Q    Q
|-----------|--------------|------------|----------------|
|-----------|-<5>----------|------------|-<5>-------<7>--|
|-----------|------<5>-----|-(<5>)------|------<5>-------|
|-5-5--5--5-|--------------|------------|----------------|
|-3-3--3--3-|--------------|------------|----------------|
|-----------|--------------|------------|----------------|
|
| PM------|
| E q  q  E    Q    Q   Q     +H.          Q    Q    Q
|-----------|--------------|------------|----------------|
|-----------|--8----7------|------------|--8----7--------|
|-----------|-----------7--|--(7)-------|------------7---|
|-5-5--5--5-|--------------|------------|----------------|
|-3-3--3--3-|--------------|------------|----------------|
|-----------|--------------|------------|----------------|


  N.C.
   H.         Q    H         +H.          Q    Q    Q
|----------|--------------|------------|----------------|
|----------|-<5>----------|------------|-<5>-------<7>--|
|-<7>------|------<5>-----|-(<5>)------|------<5>-------|
|----------|--------------|------------|----------------|
|----------|--------------|------------|----------------|
|----------|--------------|------------|----------------|
|
|  H.         Q    Q   Q     +H.          Q    Q    Q
|----------|--------------|------------|----------------|
|----------|--8----7------|------------|--8----7--------|
|----------|-----------7--|--(7)-------|------------7---|
|--9-------|--------------|------------|----------------|
|----------|--------------|------------|----------------|
|----------|--------------|------------|----------------|


   H.         Q    H         +H.          Q    Q    Q
|----------|--------------|------------|----------------|
|----------|-<5>----------|------------|-<5>-------<7>--|
|-<7>------|------<5>-----|-(<5>)------|------<5>-------|
|----------|--------------|------------|----------------|
|----------|--------------|------------|----------------|
|----------|--------------|------------|----------------|
|
|  H.         Q    Q   Q     +H.          Q    Q    Q
|----------|--------------|------------|----------------|
|----------|--8----7------|------------|--8---10---12---|
|----------|-----------7--|--(7)-------|----------------|
|--9-------|--------------|------------|----------------|
|----------|--------------|------------|----------------|
|----------|--------------|------------|----------------|


    H.         Q    H         +H.          Q    Q    Q
|-----------|--------------|------------|----------------|
|-----------|-<5>----------|------------|-<5>-------<7>--|
|--<7>------|------<5>-----|-(<5>)------|------<5>-------|
|-----------|--------------|------------|----------------|
|-----------|--------------|------------|----------------|
|-----------|--------------|------------|----------------|
|
|  +H.         Q    Q   Q     +H.          Q    Q    Q
|-----------|--------------|------------|----------------|
|-(12)------|--8----7------|------------|--8---10---12---|
|-----------|-----------7--|--(7)-------|----------------|
|-----------|--------------|------------|----------------|
|-----------|--------------|------------|----------------|
|-----------|--------------|------------|----------------|


    H.         Q    H         +H.          Q    Q    Q
|-----------|--------------|------------|----------------|
|-----------|-<5>----------|------------|-<5>-------<7>--|
|--<7>------|------<5>-----|-(<5>)------|------<5>-------|
|-----------|--------------|------------|----------------|
|-----------|--------------|------------|----------------|
|-----------|--------------|------------|----------------|
|
|  +H.         Q    Q   Q     +H.          Q    Q    Q
|-----------|--------------|------------|----------------|
|-(12)------|--8----7------|------------|--8---10--------|
|-----------|--------------|------------|------------7---|
|-----------|-----------9--|--(9)-------|----------------|
|-----------|--------------|------------|----------------|
|-----------|--------------|------------|----------------|


   H.         Q    H         +H.          Q    Q    Q
|----------|--------------|------------|----------------|
|----------|-<5>----------|------------|-<5>-------<7>--|
|-<7>------|------<5>-----|-(<5>)------|------<5>-------|
|----------|--------------|------------|----------------|
|----------|--------------|------------|----------------|
|----------|--------------|------------|----------------|
|
| +H.         Q    Q   Q     +H.          Q    Q    Q
|----------|--------------|------------|----------------|
|----------|--8----7------|------------|--8----7--------|
|-(7)------|-----------7--|--(7)-------|----------------|
|----------|--------------|------------|------------9---|
|----------|--------------|------------|----------------|
|----------|--------------|------------|----------------|


   H.         Q    H         +H.          Q    Q    Q
|----------|--------------|------------|----------------|
|----------|-<5>----------|------------|-<5>-------<7>--|
|-<7>------|------<5>-----|-(<5>)------|------<5>-------|
|----------|--------------|------------|----------------|
|----------|--------------|------------|----------------|
|----------|--------------|------------|----------------|
|
| +H.         Q    Q   Q     +H.          Q    Q    Q
|----------|--------------|------------|----------------|
|----------|--8----7------|------------|--8----7--------|
|----------|-----------7--|--(7)-------|------------7---|
|-(9)------|--------------|------------|----------------|
|----------|--------------|------------|----------------|
|----------|--------------|------------|----------------|


   H.         Q    H         +H.          Q    Q    Q
|----------|--------------|------------|----------------|
|----------|-<5>----------|------------|-<5>-------<7>--|
|-<7>------|------<5>-----|-(<5>)------|------<5>-------|
|----------|--------------|------------|----------------|
|----------|--------------|------------|----------------|
|----------|--------------|------------|----------------|
|
|  H.         Q    Q   Q     +H.         +H.
|----------|--------------|------------|----------------|
|----------|--8----7------|------------|----------------|
|----------|-----------7--|--(7)-------|-(7)------------|
|--9-------|--------------|------------|----------------|
|----------|--------------|------------|----------------|
|----------|--------------|------------|----------------|


 Breakdown
  C5
     PM----|      PM----|      PM----|      PM----|
  Q  E E E E   Q  E E E E   Q  E E E E   Q  E E E E
|------------|------------|------------|------------|
|------------|------------|------------|------------|
|-5----------|-5----------|-5----------|-5----------|
|-5--5-5-5-5-|-5--5-5-5-5-|-5--5-5-5-5-|-5--5-5-5-5-|
|-3--3-3-3-3-|-3--3-3-3-3-|-3--3-3-3-3-|-3--3-3-3-3-|
|------------|------------|------------|------------|
|
| Q  Q   Q     Q  Q   Q     Q  Q   Q     Q  Q   Q
|------------|------------|------------|------------|
|-8--7-------|-8--7-------|-8--7-------|-8--7-------|
|--------7---|--------7---|--------7---|------------|
|------------|------------|------------|--------9---|
|------------|------------|------------|------------|
|------------|------------|------------|------------|


  B5
     PM----|      PM----|      PM----|      PM----|
  Q  E E E E   Q  E E E E   Q  E E E E   Q  E E E E
|------------|------------|------------|------------|
|------------|------------|------------|------------|
|-4----------|-4----------|-4----------|-4----------|
|-4--4-4-4-4-|-4--4-4-4-4-|-4--4-4-4-4-|-4--4-4-4-4-|
|-2--2-2-2-2-|-2--2-2-2-2-|-2--2-2-2-2-|-2--2-2-2-2-|
|------------|------------|------------|------------|
|
| Q  Q   Q     Q  Q   Q     Q  Q   Q     Q  Q   Q
|------------|------------|------------|------------|
|-8--7-------|-8--7-------|-8--7-------|-8--7-------|
|--------7---|--------7---|--------7---|------------|
|------------|------------|------------|--------9---|
|------------|------------|------------|------------|
|------------|------------|------------|------------|


  E5          N.C.
  H.          H.           H.          H.
|-----------|-----------|------------|-----------|
|-----------|-----------|------------|-----------|
|-----------|-----------|------------|-----------|
|-2---------|-----------|------------|-----------|
|-2---------|-9---------|-10---------|-5---------|
|-0---------|-----------|------------|-----------|
|
| Q   Q  Q    Q   Q  Q     Q   Q  Q    Q   Q  Q
|-----------|-----------|------------|-----------|
|-8---7-----|-8---7-----|--8---7-----|-8---7-----|
|--------7--|--------7--|---------7--|-----------|
|-----------|-----------|------------|--------9--|
|-----------|-----------|------------|-----------|
|-----------|-----------|------------|-----------|


    H.          H.           Q   H          Q    H
|-------------|-----------|--------------|----------------|
|-------------|-----------|--------------|----------------|
|-------------|-----------|--------------|----------------|
|-------------|-----------|--------------|----------------|
|-/10---------|-9---------|-10--12-------|-10----9--------|
|-------------|-----------|--------------|----------------|
|
|   Q   Q  Q    Q   Q  Q     Q   Q   Q      Q    Q    Q
|-------------|-----------|--------------|----------------|
|---8---7-----|-8---7-----|--8h=10-------|-<7>------------|
|----------7--|--------7--|---------<5>--|------<7>-------|
|-------------|-----------|--------------|-----------<7>--|
|-------------|-----------|--------------|----------------|
|-------------|-----------|--------------|----------------|


  C5
     PM----|      PM----|      PM----|      PM----|
  Q  E E E E   Q  E E E E   Q  E E E E   Q  E E E E
|------------|------------|------------|------------|
|------------|------------|------------|------------|
|-5----------|-5----------|-5----------|-5----------|
|-5--5-5-5-5-|-5--5-5-5-5-|-5--5-5-5-5-|-5--5-5-5-5-|
|-3--3-3-3-3-|-3--3-3-3-3-|-3--3-3-3-3-|-3--3-3-3-3-|
|------------|------------|------------|------------|
|
| Q  Q   Q     Q  Q   Q     Q  Q   Q     Q  Q   Q
|------------|------------|------------|------------|
|-8--7-------|-8--7-------|-8--7-------|-8--7-------|
|--------7---|--------7---|--------7---|------------|
|------------|------------|------------|--------9---|
|------------|------------|------------|------------|
|------------|------------|------------|------------|


  B5
     PM----|      PM----|      PM----|      PM----|
  Q  E E E E   Q  E E E E   Q  E E E E   Q  E E E E
|------------|------------|------------|------------|
|------------|------------|------------|------------|
|-4----------|-4----------|-4----------|-4----------|
|-4--4-4-4-4-|-4--4-4-4-4-|-4--4-4-4-4-|-4--4-4-4-4-|
|-2--2-2-2-2-|-2--2-2-2-2-|-2--2-2-2-2-|-2--2-2-2-2-|
|------------|------------|------------|------------|
|
| Q  Q   Q     Q  Q   Q     Q  Q   Q     Q  Q   Q
|------------|------------|------------|------------|
|-8--7-------|-8--7-------|-8--7-------|-8--7-------|
|--------7---|--------7---|--------7---|------------|
|------------|------------|------------|--------9---|
|------------|------------|------------|------------|
|------------|------------|------------|------------|


  E5           N.C.
  Q  E E E E    Q  E E E E    Q  E E E E   Q  E E E E
|------------|-------------|-------------|------------|
|------------|-------------|-------------|------------|
|------------|-11----------|-12----------|-7----------|
|-2----------|--x----------|--x----------|-x----------|
|-2--2-2-2-2-|--9----------|-10----------|-5----------|
|-0--0-0-0-0-|-----0-0-0-0-|-----0-0-0-0-|----0-0-0-0-|
|
| Q  Q   Q      Q  Q   Q      Q  Q   Q     Q  Q   Q
|------------|-------------|-------------|------------|
|-8--7-------|--8--7-------|--8--7-------|-8--7-------|
|--------7---|---------7---|---------7---|------------|
|------------|-------------|-------------|--------9---|
|------------|-------------|-------------|------------|
|------------|-------------|-------------|------------|


    Q  E E E E    Q  E E E E    Q   Q   Q      Q    Q    Q
|--------------|-------------|--------------|----------------|
|--------------|-------------|--------------|----------------|
|-/12----------|-11----------|-14--12--11---|-12---11----7---|
|--/x----------|--x----------|--x---x---x---|--x----x----x---|
|-/10----------|--9----------|-12--10---9---|-10----9----5---|
|------0-0-0-0-|-----0-0-0-0-|--------------|----------------|
|
|   Q  Q   Q      Q  Q   Q      Q   Q   Q      Q    Q    Q
|--------------|-------------|--------------|----------------|
|---8--7-------|--8--7-------|--8h=10-------|-<7>------------|
|----------7---|---------7---|---------<5>--|------<7>-------|
|--------------|-------------|--------------|-----------<7>--|
|--------------|-------------|--------------|----------------|
|--------------|-------------|--------------|----------------|


  C5
         PM------|                             PM------|
   Q     E  E  E  E    Q   Q     Q       Q     E  E  E  E    Q   Q     Q
|-------------------|-----------------|-------------------|-----------------|
|-------------------|-----------------|-------------------|-----------------|
|--5----------------|--5---5-----5----|--5----------------|--5---5-----5----|
|--5-----5--5--5--5-|--5---5-----5----|--5-----5--5--5--5-|--5---5-----5----|
|--3-----3--3--3--3-|--3---3-----3----|--3-----3--3--3--3-|--3---3-----3----|
|-------------------|-----------------|-------------------|-----------------|
|
|  E  E  E  E  E  E    q   E  E  E  E    E  E  E  E  E  E    q   E  E  E  E
|-------------------|-----------------|-------------------|-----------------|
|-------------------|-----------------|-------------------|-----------------|
|-11-11-11-12-12-12-|-14--16-16-16-16-|-11-11-11-12-12-12-|-14--16-16-16-16-|
|--x--x--x--x--x--x-|--x---x--x--x--x-|--x--x--x--x--x--x-|--x---x--x--x--x-|
|--9--9--9-10-10-10-|-12--14-14-14-14-|--9--9--9-10-10-10-|-12--14-14-14-14-|
|-------------------|-----------------|-------------------|-----------------|


  B5
         PM------|                             PM------|
   Q     E  E  E  E    Q   Q     Q       Q     E  E  E  E    Q  Q   Q
|-------------------|-----------------|-------------------|-------------|
|-------------------|-----------------|-------------------|-------------|
|--4----------------|--4---4-----4----|--4----------------|--4--4---4---|
|--4-----4--4--4--4-|--4---4-----4----|--4-----4--4--4--4-|--4--4---4---|
|--2-----2--2--2--2-|--2---2-----2----|--2-----2--2--2--2-|--2--2---2---|
|-------------------|-----------------|-------------------|-------------|
|
|  E  E  E  E  E  E    q   E  E  E  E    E  E  E  E  E  E    Q  E E E E
|-------------------|-----------------|-------------------|-------------|
|-------------------|-----------------|-------------------|-------------|
|-11-11-11-12-12-12-|-14--16-16-16-16-|-11-11-11-12-12-12-|-14--9-9-9-9-|
|--x--x--x--x--x--x-|--x---x--x--x--x-|--x--x--x--x--x--x-|--x--x-x-x-x-|
|--9--9--9-10-10-10-|-12--14-14-14-14-|--9--9--9-10-10-10-|-12--7-7-7-7-|
|-------------------|-----------------|-------------------|-------------|


  E5                  N.C.
   PM------------|
   E  q     q     E    Q     E  E  E  E
|-------------------|-------------------|
|-------------------|-------------------|
|-------------------|-11----11-11-11-11-|
|-------------------|--x-----x--x--x--x-|
|--2--2-----2-----2-|--9-----9--9--9--9-|
|--0--0-----0-----0-|-------------------|
|
|  E  E  E  E  E  E    E  E  E  E  E  E
|-------------------|-------------------|
|-------------------|-------------------|
|-11-11-11-11-11-11-|-11-11-11-11-11-11-|
|--x--x--x--x--x--x-|--x--x--x--x--x--x-|
|--9--9--9--9--9--9-|--9--9--9--9--9--9-|
|-------------------|-------------------|


  E5                  N.C.
   PM------------|
   E  q     q     E    Q     E  E  E  E
|-------------------|-------------------|
|-------------------|-------------------|
|-------------------|-12----12-12-12-12-|
|-------------------|--x-----x--x--x--x-|
|--2--2-----2-----2-|-10----10-10-10-10-|
|--0--0-----0-----0-|-------------------|
|
|  E  E  E  E  E  E    E  E  E  E  Q
|-------------------|-10----------------|
|-------------------|-------------------|
|-11-11-11-11-11-11-|-11-11-11-11--9----|
|--x--x--x--x--x--x-|--x--x--x--x--x----|
|--9--9--9--9--9--9-|--9--9--9--9--7----|
|-------------------|-------------------|


  E5                  N.C.
   PM------------|
   E  q     q     E    E  E  E  E  E  E    E  E  E  E  E  E    E  E  E  E  Q
|-------------------|-------------------|-------------------|------------------|
|-------------------|-------------------|-------------------|------------------|
|-------------------|-12-12-12-12-12-12-|-12-12-12-12-12-12-|-12-12-12-12-12\--|
|-------------------|--x--x--x--x--x--x-|--x--x--x--x--x--x-|--x--x--x--x--x\--|
|--2--2-----2-----2-|-10-10-10-10-10-10-|-10-10-10-10-10-10-|-10-10-10-10-10\--|
|--0--0-----0-----0-|-------------------|-------------------|------------------|
|
|  E  E  E  E  E  E    E  E  E  E  Q       E  E  E  E  E  E    E  E  E  E  Q
|-------------------|-------------------|-------------------|------------------|
|-------------------|-------------------|-------------------|------------------|
|-11-11-11-11-11-11-|-11-11-11-11--9----|-11-11-11-11-11-11-|-11-11-11-11-11\--|
|--x--x--x--x--x--x-|--x--x--x--x--x----|--x--x--x--x--x--x-|--x--x--x--x--x\--|
|--9--9--9--9--9--9-|--9--9--9--9--7----|--9--9--9--9--9--9-|--9--9--9--9--9\--|
|-------------------|-------------------|-------------------|------------------|


 Out-Chorus
  C5
  Q  E E E E   Q  E E E E   Q  E E E E   Q  E E E E
|------------|------------|------------|------------|
|------------|------------|------------|------------|
|-5--5-5-5-5-|-5--5-5-5-5-|-5--5-5-5-5-|-5--5-5-5-5-|
|-5--5-5-5-5-|-5--5-5-5-5-|-5--5-5-5-5-|-5--5-5-5-5-|
|-3--3-3-3-3-|-3--3-3-3-3-|-3--3-3-3-3-|-3--3-3-3-3-|
|------------|------------|------------|------------|
|
| Q  E E E E   Q  E E E E   Q  E E E E   Q  E E E E
|------------|------------|------------|------------|
|------------|------------|------------|------------|
|-5--5-5-5-5-|-5--5-5-5-5-|-5--5-5-5-5-|-5--5-5-5-5-|
|-5--5-5-5-5-|-5--5-5-5-5-|-5--5-5-5-5-|-5--5-5-5-5-|
|-3--3-3-3-3-|-3--3-3-3-3-|-3--3-3-3-3-|-3--3-3-3-3-|
|------------|------------|------------|------------|


  B5
  Q  E E E E   Q  E E E E   Q  E E E E   Q  E E E E
|------------|------------|------------|------------|
|------------|------------|------------|------------|
|-4--4-4-4-4-|-4--4-4-4-4-|-4--4-4-4-4-|-4--4-4-4-4-|
|-4--4-4-4-4-|-4--4-4-4-4-|-4--4-4-4-4-|-4--4-4-4-4-|
|-2--2-2-2-2-|-2--2-2-2-2-|-2--2-2-2-2-|-2--2-2-2-2-|
|------------|------------|------------|------------|
|
| Q  E E E E   Q  E E E E   Q  E E E E   Q  E E E E
|------------|------------|------------|------------|
|------------|------------|------------|------------|
|-4--4-4-4-4-|-4--4-4-4-4-|-4--4-4-4-4-|-4--4-4-4-4-|
|-4--4-4-4-4-|-4--4-4-4-4-|-4--4-4-4-4-|-4--4-4-4-4-|
|-2--2-2-2-2-|-2--2-2-2-2-|-2--2-2-2-2-|-2--2-2-2-2-|
|------------|------------|------------|------------|


  E5           N.C.
  Q  E E E E    Q   E  E  E  E    Q   E  E  E  E    Q   E  E  E  E
|------------|-----------------|-----------------|-----------------|
|------------|-----------------|-----------------|-----------------|
|------------|-11--11-11-11-11-|-12--12-12-12-12-|--7---7--7--7--7-|
|-2--2-2-2-2-|--x---x--x--x--x-|--x---x--x--x--x-|--x---x--x--x--x-|
|-2--2-2-2-2-|--9---9--9--9--9-|-10--10-10-10-10-|--5---5--5--5--5-|
|-0--0-0-0-0-|-----------------|-----------------|-----------------|
|
| Q  E E E E    Q   E  E  E  E    Q   E  Q     E    Q   E  E  E  E
|------------|-----------------|-----------------|-----------------|
|------------|--0---0--0--0--0-|--0---0--0-----0-|--0---0--0--0--0-|
|------------|-11--11-11-11-11-|-11--11-11----11-|-11--11-11-11-11-|
|-2--2-2-2-2-|--x---x--x--x--x-|--x---x--x-----x-|--x---x--x--x--x-|
|-2--2-2-2-2-|--9---9--9--9--9-|--9---9--9-----9-|--9---9--9--9--9-|
|-0--0-0-0-0-|-----------------|-----------------|-----------------|


  E5           Gadd11/C
  Q  E E E E    Q   E  E  E  E    Q   E  E  E  E    Q   E  E  E  E
|------------|-----------------|-----------------|-----------------|
|------------|-----------------|-----------------|-----------------|
|------------|-11--11-11-11-11-|-12--12-12-12-12-|-16--16-16-16-16-|
|-2--2-2-2-2-|--x---x--x--x--x-|--x---x--x--x--x-|--x---x--x--x--x-|
|-2--2-2-2-2-|--9---9--9--9--9-|-10--10-10-10-10-|-14--14-14-14-14-|
|-0--0-0-0-0-|-----------------|-----------------|-----------------|
|
| Q  E Q   E    Q   E  E  E  E    Q   E  Q     E    Q   E  E  E  E
|------------|-----------------|-----------------|-----------------|
|-0--0-0---0-|--0---0--0--0--0-|--0---0--0-----0-|--0---0--0--0--0-|
|-5--5-5---5-|--5---5--5--5--5-|--5---5--5-----5-|--5---5--5--5--5-|
|-5--5-5---5-|--5---5--5--5--5-|--5---5--5-----5-|--5---5--5--5--5-|
|-3--3-3---3-|--3---3--3--3--3-|--3---3--3-----3-|--3---3--3--3--3-|
|------------|-----------------|-----------------|-----------------|


  C5
  Q  E E E E   Q  E E E E   Q  E E E E   Q  E E E E
|------------|------------|------------|------------|
|------------|------------|------------|------------|
|-5--5-5-5-5-|-5--5-5-5-5-|-5--5-5-5-5-|-5--5-5-5-5-|
|-5--5-5-5-5-|-5--5-5-5-5-|-5--5-5-5-5-|-5--5-5-5-5-|
|-3--3-3-3-3-|-3--3-3-3-3-|-3--3-3-3-3-|-3--3-3-3-3-|
|------------|------------|------------|------------|
|
| Q  E E E E   Q  E E E E   Q  E E E E   Q  E E E E
|------------|------------|------------|------------|
|------------|------------|------------|------------|
|-5--5-5-5-5-|-5--5-5-5-5-|-5--5-5-5-5-|-5--5-5-5-5-|
|-5--5-5-5-5-|-5--5-5-5-5-|-5--5-5-5-5-|-5--5-5-5-5-|
|-3--3-3-3-3-|-3--3-3-3-3-|-3--3-3-3-3-|-3--3-3-3-3-|
|------------|------------|------------|------------|


  B5
  Q  E E E E   Q  E E E E   Q  E E E E   Q  E E E E
|------------|------------|------------|------------|
|------------|------------|------------|------------|
|-4--4-4-4-4-|-4--4-4-4-4-|-4--4-4-4-4-|-4--4-4-4-4-|
|-4--4-4-4-4-|-4--4-4-4-4-|-4--4-4-4-4-|-4--4-4-4-4-|
|-2--2-2-2-2-|-2--2-2-2-2-|-2--2-2-2-2-|-2--2-2-2-2-|
|------------|------------|------------|------------|
|
| Q  E E E E   Q  E E E E   Q  E E E E   Q  E E E E
|------------|------------|------------|------------|
|------------|------------|------------|------------|
|-4--4-4-4-4-|-4--4-4-4-4-|-4--4-4-4-4-|-4--4-4-4-4-|
|-4--4-4-4-4-|-4--4-4-4-4-|-4--4-4-4-4-|-4--4-4-4-4-|
|-2--2-2-2-2-|-2--2-2-2-2-|-2--2-2-2-2-|-2--2-2-2-2-|
|------------|------------|------------|------------|


  E5           N.C.
  Q  E E E E    Q   E  E  E  E    Q   E  E  E  E    Q   E  E  E  E
|------------|-----------------|-----------------|-----------------|
|------------|-----------------|-----------------|-----------------|
|------------|-11--11-11-11-11-|-12--12-12-12-12-|--7---7--7--7--7-|
|-2--2-2-2-2-|--x---x--x--x--x-|--x---x--x--x--x-|--x---x--x--x--x-|
|-2--2-2-2-2-|--9---9--9--9--9-|-10--10-10-10-10-|--5---5--5--5--5-|
|-0--0-0-0-0-|-----------------|-----------------|-----------------|
|
| Q  E E E E    Q   E  E  E  E    Q   E  Q     E    Q   E  E  E  E
|------------|-----------------|-----------------|-----------------|
|------------|--0---0--0--0--0-|--0---0--0-----0-|--0---0--0--0--0-|
|------------|-11--11-11-11-11-|-11--11-11----11-|-11--11-11-11-11-|
|-2--2-2-2-2-|--x---x--x--x--x-|--x---x--x-----x-|--x---x--x--x--x-|
|-2--2-2-2-2-|--9---9--9--9--9-|--9---9--9-----9-|--9---9--9--9--9-|
|-0--0-0-0-0-|-----------------|-----------------|-----------------|


  Gadd11/C
   Q   E  E  E  E    Q   E  E  E  E    Q   E  E  E  E    Q   E  E  Q
|-----------------|-----------------|-----------------|-----------------|
|-----------------|-----------------|-----------------|-----------------|
|-12--12-12-12-12-|-11--11-11-11-11-|-12--12-12-12-12-|-16--16-16-16\---|
|--x---x--x--x--x-|--x---x--x--x--x-|--x---x--x--x--x-|--x---x--x--x\---|
|-10--10-10-10-10-|--9---9--9--9--9-|-10--10-10-10-10-|-14--14-14-14\---|
|-----------------|-----------------|-----------------|-----------------|
|
|  Q   E  Q     E    Q   E  E  E  E    Q   E  Q     E    Q   E  E  E  E
|-----------------|-----------------|-----------------|-----------------|
|--0---0--0-----0-|--0---0--0--0--0-|--0---0--0-----0-|--0---0--0--0--0-|
|--5---5--5-----5-|--5---5--5--5--5-|--5---5--5-----5-|--5---5--5--5--5-|
|--5---5--5-----5-|--5---5--5--5--5-|--5---5--5-----5-|--5---5--5--5--5-|
|--3---3--3-----3-|--3---3--3--3--3-|--3---3--3-----3-|--3---3--3--3--3-|
|-----------------|-----------------|-----------------|-----------------|


    C5
    Q  E E E E   Q  E E E E   Q  E E E E   Q  E E E E
||-------------|------------|------------|-------------|
||o------------|------------|------------|-------------|
||--5--5-5-5-5-|-5--5-5-5-5-|-5--5-5-5-5-|-5--5-5-5-5--|
||--5--5-5-5-5-|-5--5-5-5-5-|-5--5-5-5-5-|-5--5-5-5-5--|
||o-3--3-3-3-3-|-3--3-3-3-3-|-3--3-3-3-3-|-3--3-3-3-3--|
||-------------|------------|------------|-------------|
|
|   Q  E E E E   Q  E E E E   Q  E E E E   Q  E E E E
||-------------|------------|------------|-------------|
||o------------|------------|------------|-------------|
||--5--5-5-5-5-|-5--5-5-5-5-|-5--5-5-5-5-|-5--5-5-5-5--|
||--5--5-5-5-5-|-5--5-5-5-5-|-5--5-5-5-5-|-5--5-5-5-5--|
||o-3--3-3-3-3-|-3--3-3-3-3-|-3--3-3-3-3-|-3--3-3-3-3--|
||-------------|------------|------------|-------------|


  B5
  Q  E E E E   Q  E E E E   Q  E E E E   Q  E E E E
|------------|------------|------------|------------|
|------------|------------|------------|------------|
|-4--4-4-4-4-|-4--4-4-4-4-|-4--4-4-4-4-|-4--4-4-4-4-|
|-4--4-4-4-4-|-4--4-4-4-4-|-4--4-4-4-4-|-4--4-4-4-4-|
|-2--2-2-2-2-|-2--2-2-2-2-|-2--2-2-2-2-|-2--2-2-2-2-|
|------------|------------|------------|------------|
|
| Q  E E E E   Q  E E E E   Q  E E E E   Q  E E E E
|------------|------------|------------|------------|
|------------|------------|------------|------------|
|-4--4-4-4-4-|-4--4-4-4-4-|-4--4-4-4-4-|-4--4-4-4-4-|
|-4--4-4-4-4-|-4--4-4-4-4-|-4--4-4-4-4-|-4--4-4-4-4-|
|-2--2-2-2-2-|-2--2-2-2-2-|-2--2-2-2-2-|-2--2-2-2-2-|
|------------|------------|------------|------------|


  E5           N.C.
  Q  E E E E    Q   E  E  E  E    Q   E  E  E  E    Q   E  E  E  E
|------------|-----------------|-----------------|-----------------|
|------------|-----------------|-----------------|-----------------|
|------------|-11--11-11-11-11-|-12--12-12-12-12-|--7---7--7--7--7-|
|-2--2-2-2-2-|--x---x--x--x--x-|--x---x--x--x--x-|--x---x--x--x--x-|
|-2--2-2-2-2-|--9---9--9--9--9-|-10--10-10-10-10-|--5---5--5--5--5-|
|-0--0-0-0-0-|-----------------|-----------------|-----------------|
|
| Q  E E E E    Q   E  E  E  E    Q   E  Q     E    Q   E  E  E  E
|------------|-----------------|-----------------|-----------------|
|------------|--0---0--0--0--0-|--0---0--0-----0-|--0---0--0--0--0-|
|------------|-11--11-11-11-11-|-11--11-11----11-|-11--11-11-11-11-|
|-2--2-2-2-2-|--x---x--x--x--x-|--x---x--x-----x-|--x---x--x--x--x-|
|-2--2-2-2-2-|--9---9--9--9--9-|--9---9--9-----9-|--9---9--9--9--9-|
|-0--0-0-0-0-|-----------------|-----------------|-----------------|


  Gadd11/C
   Q   E  E  E  E    Q   E  E  E  E    Q   E  E  E  E    Q   E  E Q
|-----------------|-----------------|-----------------|----------------||
|-----------------|-----------------|-----------------|---------------o||
|-12--12-12-12-12-|-12--12-12-12-12-|-12--12-12-12-12-|-12--12-12------||
|--x---x--x--x--x-|--x---x--x--x--x-|--x---x--x--x--x-|--x---x--x-2----||
|-10--10-10-10-10-|-10--10-10-10-10-|-10--10-10-10-10-|-10--10-10-2---o||
|-----------------|-----------------|-----------------|-----------0----||
|
|  Q   E  Q     E    Q   E  E  E  E    Q   E  Q     E    Q   E  E E E
|-----------------|-----------------|-----------------|----------------||
|--0---0--0-----0-|--0---0--0--0--0-|--0---0--0-----0-|--0---0--0-0-0-o||
|--5---5--5-----5-|--5---5--5--5--5-|--5---5--5-----5-|--5---5--5-5-5--||
|--5---5--5-----5-|--5---5--5--5--5-|--5---5--5-----5-|--5---5--5-5-5--||
|--3---3--3-----3-|--3---3--3--3--3-|--3---3--3-----3-|--3---3--3-3-3-o||
|-----------------|-----------------|-----------------|----------------||


  C5
  PM------|
  E q  q  E   Q  H
|-----------|---------*|
|-----------|---------*|
|-----------|-5-------*|
|-5-5--5--5-|-5-------*|
|-3-3--3--3-|-3-------*|
|-----------|---------*|
|
| PM------|
| E q  q  E   Q  H
|-----------|---------*|
|-----------|---------*|
|-----------|-5-------*|
|-5-5--5--5-|-5-------*|
|-3-3--3--3-|-3-------*|
|-----------|---------*|



Duration Legend
---------------
W - whole; H - half; Q - quarter; E - 8th; S - 16th; T - 32nd; X - 64th; a - acciaccatura
+ - note tied to previous; . - note dotted; .. - note double dotted
Uncapitalized letters represent notes that are staccato (1/2 duration)
Irregular groupings are notated above the duration line
Duration letters will always appear directly above the note/fret number it represents the
duration for.  Duration letters with no fret number below them represent rests.  Multi-
bar rests are notated in the form Wxn, where n is the number of bars to rest for.  Low
melody durations appear below the staff

Tablature Legend
----------------
 h   - hammer-on
 p   - pull-off
 b   - bend
 pb  - pre-bend
 r   - bend release (if no number after the r, then release immediately)
 /\  - slide into or out of (from/to "nowhere")
 s   - legato slide
 S   - shift slide
 - natural harmonic
[n]  - artificial harmonic
n(n) - tapped harmonic
 ~   - vibrato
 tr  - trill
 T   - tap
 TP  - trem. picking
 PM  - palm muting
\n/  - tremolo bar dip; n = amount to dip
 \n  - tremolo bar down
 n/  - tremolo bar up
/n\  - tremolo bar inverted dip
 =   - hold bend; also acts as connecting device for hammers/pulls
 <> - volume swell (louder/softer)
 x   - on rhythm slash represents muted slash
 o   - on rhythm slash represents single note slash

Misc Legend
-----------
 |  - bar
||  - double bar
||o - repeat start
o|| - repeat end
*|  - double bar (ending)
 :  - bar (freetime)
 $  - Segno
 &  - Coda
Tempo markers -  = BPM(8/16=s8/s16), where s8 = swing 8ths, s16 = swing 16ths
Comments