Alexisonfire - Little Girls Pointing And Laughing Chords & Tabs

 

Little Girls Pointing And Laughing Chords & Tabs

Alexisonfire Chords & Tabs

Version: 3 Type: Tab 0 ratings
1 star 2 stars 3 stars 4 stars 5 stars
comments

Little Girls Pointing And Laughing Tab

   
   Little Girls Pointing And Laughing-Alexisonfire
Tabbed By Danzetto
(#)-Harmonic note
^-palm mute
x-scratch
/-slide
p-pull off
h-hammer on

Tuning
Db
Ab
Gb
Db
Bb
Eb

   Intro & Pre Chorus

Gt.1 |-----------------------------------------|
Clean|-----------------------------------------|
     |-9/12/11/16/14/16/12-9/12/11/16/14/16/12-|
     |-----------------------------------------|
     |-7/10/9-/14/12/14/10-7/10/9-/14/12/14/10-|
     |-----------------------------------------| 

Gt.2 |-----------------------------------------|
Dist.|-----------------------------------------|
     |-----------------------------------------|
     |-----------------------------------------|
     |-----------------------------------------|
     |-----------------------------------------|


Gt.1 |-----------------------------------------|
Clean|-----------------------------------------|
     |-9/12/11/16/14/16/12-9/12/11/16/14/16/12-|
     |-----------------------------------------|
     |-7/10/9-/14/12/14/10-7/10/9-/14/12/14/10-|
     |-----------------------------------------| 

Gt.2 |-----------------------------------------|
Dist.|-----------------------------------------|
     |-----------------------------------0-----|
     |------------------------------------xxxxx|
     |------------------------------------xxxxx|
     |-----------------------------------------|

   Chorus

Gt.1 |-------------------------------------------------------------------------|
Dist.|-------------------------------------------------------------------------|
     |-16161616-16-16-16-16161616-16-16-16-16161616-16-16-16-16161616-16-16-16-|
     |-------------------------------------------------------------------------|
     |-14141414-14-14-14-14141414-14-14-14-14141414-14-14-14-14141414-14-14-14-|
     |-------------------------------------------------------------------------|

Gt.2 |-------------------------------------------------------------------------|
Dist |-------------------------------------------------------------------------|
     |-------------------------------------------------------------------------|
     |-10101010-10-10-10-10101010-10-10-10-10101010-10-10-10-10101010-10-10-10-|
     |-10101010-10-10-10-10101010-10-10-10-10101010-10-10-10-10101010-10-10-10-|  
     |-10101010-10-10-10-10101010-10-10-10-10101010-10-10-10-10101010-10-10-10-|   
  
                                                                                  
Gt.1 |-------------------------------------------------------------------------|
Dist.|-------------------------------------------------------------------------|
     |-9--------11-------12-------7--------9--------11-------12-------16-------|
Let  |-------------------------------------------------------------------------|
Ring |-7--------9--------10-------5--------7--------9--------10-------14-------|                  

   |-------------------------------------------------------------------------|

Gt.2 |-------------------------------------------------------------------------|
Dist.|-------------------------------------------------------------------------|
     |-9-----------------------------------9-----------------------------------|
Let  |-9-----------------------------------9-----------------------------------|
Ring |-7-----------------------------------7-----------------------------------|  
     |-------------------------------------------------------------------------|


Gt.1 |-------------------------------------------------------------------------|
Dist.|-------------------------------------------------------------------------|
     |-16161616-16-16-16-16161616-16-16-16-16161616-16-16-16-16161616-16-16-16-|
     |-------------------------------------------------------------------------|
     |-14141414-14-14-14-14141414-14-14-14-14141414-14-14-14-14141414-14-14-14-|
     |-------------------------------------------------------------------------|

Gt.2 |-------------------------------------------------------------------------|
Dist |-------------------------------------------------------------------------|
     |-------------------------------------------------------------------------|
     |-10101010-10-10-10-10101010-10-10-10-10101010-10-10-10-10101010-10-10-10-|
     |-10101010-10-10-10-10101010-10-10-10-10101010-10-10-10-10101010-10-10-10-|  
     |-10101010-10-10-10-10101010-10-10-10-10101010-10-10-10-10101010-10-10-10-|   
              
                                                                      
Gt.1 |-------------------------------------------------------------------------|
Dist.|-------------------------------------------------------------------------|
     |-9--------11-------12-------7--------9--------11-------12-------16-------|
Let  |-------------------------------------------------------------------------|
Ring |-7--------9--------10-------5--------7--------9--------10-------14-------|                  

   |-------------------------------------------------------------------------|

Gt.2 |-------------------------------------------------------------------------|
Dist.|-------------------------------------------------------------------------|
     |-9-----------------------------------9-----------------------------------|
Let  |-9-----------------------------------9-----------------------------------|
Ring |-7-----------------------------------7-----------------------------------|  
     |-------------------------------------------------------------------------|

   Verse I

Gt.1 |-------------------------------------------------------------------------|
Dist.|-------------------------------------------------------------------------|
     |---------7h9---------------7h9---------------7h9---------------7h9-------|
     |------------7h9p7h9-----------7h9p7h9-----------7h9p7h9-----------7h9p7h9|
     |-------------------------------------------------------------------------|
     |-------------------------------------------------------------------------|
     
Gt.2 |-------------------------------------------------------------------------|
Dist.|-------------------------------------------------------------------------|
     |-------------------------------------------------------------------------|
Palm |-10101010----------10101010----------10101010----------10101010----------|
Mute |-10101010----------10101010----------10101010----------10101010----------|
     |-10101010----------10101010----------10101010----------10101010----------|
       ^ ^ ^ ^           ^ ^ ^ ^           ^ ^ ^ ^           ^ ^ ^ ^ 

Gt.1 |-------------------------------------------------------------------------|
Dist.|------------7-----------------7-----------------7------------------------|
     |---------7h9-h9------------7h9-h9------------7h9-h9------------7h9-------|
     |---------------7/12--------------7/12--------------7/12-----------7h9/0--|
     |-------------------------------------------------------------------------|
     |-------------------------------------------------------------------------|
     
Gt.2 |-------------------------------------------------------------------------|
Dist.|-------------------------------------------------------------------------|
     |-9-9-9-9-----------9-9-9-9-----------9-9-9-9-----------9-9-9-9-----------|
Palm |-9-9-9-9-----------9-9-9-9-----------9-9-9-9-----------9-9-9-9-----------|
Mute |-7-7-7-7-----------7-7-7-7-----------7-7-7-7-----------7-7-7-7-----------|
     |-------------------------------------------------------------------------|
       ^ ^ ^ ^           ^ ^ ^ ^           ^ ^ ^ ^           ^ ^ ^ ^ 

Gt.1 |-------------------------------------------------------------------------|
Dist.|-------------------------------------------------------------------------|
     |---------7h9---------------7h9---------------7h9---------------7h9-------|
     |------------7h9p7h9-----------7h9p7h9-----------7h9p7h9-----------7h9p7h9|
     |-------------------------------------------------------------------------|
     |-------------------------------------------------------------------------|
     
Gt.2 |-------------------------------------------------------------------------|
Dist.|-------------------------------------------------------------------------|
     |-------------------------------------------------------------------------|
Palm |-10101010----------10101010----------10101010----------10101010----------|
Mute |-10101010----------10101010----------10101010----------10101010----------|
     |-10101010----------10101010----------10101010----------10101010----------|
       ^ ^ ^ ^           ^ ^ ^ ^           ^ ^ ^ ^           ^ ^ ^ ^ 

Gt1. |-------------------------------------------------------------------------|
Dist.|------------7-----------------7-----------------7------------------------|
     |---------7h9-h9------------7h9-h9------------7h9-h9------------7h9-------|
     |---------------7/12--------------7/12--------------7/12-----------7h9/0--|
     |-------------------------------------------------------------------------|
     |-------------------------------------------------------------------------|
     
Gt.2 |-------------------------------------------------------------------------|
Dist.|-------------------------------------------------------------------------|
     |-9-9-9-9-----------9-9-9-9-----------9-9-9-9-----------9-9-9-9-----------|
Palm |-9-9-9-9-----------9-9-9-9-----------9-9-9-9-----------9-9-9-9-----------|
Mute |-7-7-7-7-----------7-7-7-7-----------7-7-7-7-----------7-7-7-7-----------|
     |-------------------------------------------------------------------------|
       ^ ^ ^ ^           ^ ^ ^ ^           ^ ^ ^ ^           ^ ^ ^ ^ 

Gt.1 |-------------------------------------------------------------------------|   
Dist.|-------------------------------------------------------------------------|   
     |--------(12)--------------(12)--------------(12)--------------(12)-------|   
     |------------(7)(12)----------(7)(12)------------(7)(12)-----------(7)(12)|   
     |-------------------------------------------------------------------------|   
     |-------------------------------------------------------------------------|

Gt.2 |-------------------------------------------------------------------------|
Dist.|-------------------------------------------------------------------------|
     |-------------------------------------------------------------------------|
Palm |-10101010----------10101010----------10101010----------10101010----------|
Mute |-10101010----------10101010----------10101010----------10101010----------|
     |-10101010----------10101010----------10101010----------10101010----------|
       ^ ^ ^ ^           ^ ^ ^ ^           ^ ^ ^ ^           ^ ^ ^ ^ 

Gt.1 |-------------------------------------------------------------------------|   
Dist.|------------(7)---------------(7)--------------(7)----------------(7)----|   
     |--------(5)-----(7)-------(5)-----(7)------(5)-----(7)--------(5)---(7)--|   
     |----------------------------------------------------------------------(7)|   
     |-------------------------------------------------------------------------|   
     |-------------------------------------------------------------------------|

Gt.2 |-------------------------------------------------------------------------|
Dist.|-------------------------------------------------------------------------|
     |-9-9-9-9-----------9-9-9-9-----------9-9-9-9-----------9-9-9-9-----------|
Palm |-9-9-9-9-----------9-9-9-9-----------9-9-9-9-----------9-9-9-9-----------|
Mute |-7-7-7-7-----------7-7-7-7-----------7-7-7-7-----------7-7-7-7-----------|
     |-------------------------------------------------------------------------|
       ^ ^ ^ ^           ^ ^ ^ ^           ^ ^ ^ ^           ^ ^ ^ ^ 

Gt.1 |-------------------------------------------------------------------------|   
Dist.|-------------------------------------------------------------------------|   
     |-------------------------------------------------------------------------|   
     |----------10-10-10----------10-10-10----------10-10-10----------10-10-10-| 
     |----------10-10-10----------10-10-10----------10-10-10----------10-10-10-|
     |----------10-10-10----------10-10-10----------10-10-10----------10-10-10-|

Gt2. |-------------------------------------------------------------------------|
Dist.|-------------------------------------------------------------------------|
     |-------------------------------------------------------------------------|
Palm |-10101010-10-10-10-10101010-10-10-10-10101010-10-10-10-10101010-10-10-10-|
Mute |-10101010-10-10-10-10101010-10-10-10-10101010-10-10-10-10101010-10-10-10-|
     |-10101010-10-10-10-10101010-10-10-10-10101010-10-10-10-10101010-10-10-10-|
       ^ ^ ^ ^           ^ ^ ^ ^           ^ ^ ^ ^           ^ ^ ^ ^ 

Gt.1 |-------------------------------------------------------------------------|   
Dist.|--------------------------------------------------7-------7--------------|   
     |----------9--9--9-----------9--9--9-----------7h9-----7h9-----7h9p7------|   
     |--------------------------------------------------------------------9----|
     |----------7--7--7-----------7--7--7--------------------------------------|
     |-------------------------------------------------------------------------| 

Gt.2 |-------------------------------------------------------------------------|
Dist.|-------------------------------------------------------------------------|
     |-9-9-9-9--9--9--9--9-9-9-9--9--9--9--9-9-9-9--9--9--9--9-9-9-9--9--9--9--|
Palm |-9-9-9-9--9--9--9--9-9-9-9--9--9--9--9-9-9-9--9--9--9--9-9-9-9--9--9--9--|
Mute |-7-7-7-7--7--7--7--7-7-7-7--7--7--7--7-7-7-7--7--7--7--7-7-7-7--7--7--7--|
     |-------------------------------------------------------------------------|
       ^ ^ ^ ^           ^ ^ ^ ^           ^ ^ ^ ^            
   Chorus

Gt.1 |-------------------------------------------------------------------------|   
Dist.|-------------------------------------------------------------------------|   
     |-121212121212121212121212121212121212-1111111111111111111111111111111111-|   
Strum|-------------------------------------------------------------------------|   
     |-101010101010101010101010101010101010-9-9-9-9-9-9-9-9-9-9-9-9-9-9-9-9-9--|   
     |-------------------------------------------------------------------------|

Gt.2 |-------------------------------------------------------------------------|
Dist |-------------------------------------------------------------------------|
     |-------------------------------------------------------------------------|
Strum|-101010101010101010101010101010101010-9-9-9-9-9-9-9-9-9-9-9-9-9-9-9-9-9--| 
     |-101010101010101010101010101010101010-9-9-9-9-9-9-9-9-9-9-9-9-9-9-9-9-9--|
     |-101010101010101010101010101010101010-9-9-9-9-9-9-9-9-9-9-9-9-9-9-9-9-9--|   


Gt.1 |-------------------------------------------------------------------------|
Dist.|-------------------------------------------------------------------------|
     |-99999999/11111111/12121212/77777777/99999999/11111111/12121212/16161616-|
Let  |-------------------------------------------------------------------------|
Ring |-77777777/9-9-9-9-/10101010/55555555/77777777/9-9-9-9-/10101010/14141414-|                  

     |-------------------------------------------------------------------------|

Gt.2 |-------------------------------------------------------------------------|
Dist |-------------------------------------------------------------------------|
     |-99999999999999999999999999999999999999999999999999999999999999999999999-|
Strum|-99999999999999999999999999999999999999999999999999999999999999999999999-| 
     |-77777777777777777777777777777777777777777777777777777777777777777777777-|
     |-------------------------------------------------------------------------|   


Gt.1 |-------------------------------------------------------------------------|   
Dist.|-------------------------------------------------------------------------|   
     |-121212121212121212121212121212121212-1111111111111111111111111111111111-|   
Strum|-------------------------------------------------------------------------|   
     |-101010101010101010101010101010101010-9-9-9-9-9-9-9-9-9-9-9-9-9-9-9-9-9--|   
     |-------------------------------------------------------------------------|

Gt.2 |-------------------------------------------------------------------------|
Dist |-------------------------------------------------------------------------|
     |-------------------------------------------------------------------------|
Strum|-101010101010101010101010101010101010-9-9-9-9-9-9-9-9-9-9-9-9-9-9-9-9-9--| 
     |-101010101010101010101010101010101010-9-9-9-9-9-9-9-9-9-9-9-9-9-9-9-9-9--|
     |-101010101010101010101010101010101010-9-9-9-9-9-9-9-9-9-9-9-9-9-9-9-9-9--|   

[ Tab from: http://www.guitartabs.cc/tabs/a/alexisonfire/little_girls_pointing_and_laughing_tab_ver_3.html ]
Gt.1 |-------------------------------------------------------------------------|
Dist.|-------------------------------------------------------------------------|
     |-99999999/11111111/12121212/77777777/99999999/11111111/12121212/16161616-|
Let  |-------------------------------------------------------------------------|
Ring |-77777777/9-9-9-9-/10101010/55555555/77777777/9-9-9-9-/10101010/14141414-|                  

     |-------------------------------------------------------------------------|

Gt.2 |-------------------------------------------------------------------------|
Dist |-------------------------------------------------------------------------|
     |-99999999999999999999999999999999999999999999999999999999999999999999999-|
Strum|-99999999999999999999999999999999999999999999999999999999999999999999999-| 
     |-77777777777777777777777777777777777777777777777777777777777777777777777-|
     |-------------------------------------------------------------------------|
   
   Verse II

Gt.1 |--------(7)---------------(7)--------------(7)---------------(7)---------|
Dist.|--------------------------------(7)--------------------------------(7)---|
     |-----------(5)---------------(5)---(7)--------(5)---------------(5)---(7)|
     |-------------------------------------------------------------------------|
     |-------------------------------------------------------------------------|
     |-------------------------------------------------------------------------|

Gt.2 |-------------------------------------------------------------------------|
Dist.|-------------------------------------------------------------------------|
     |--------(12)--------------(12)--------------(12)--------------(12)-------|
Palm |-10101010---(7)(12)10101010---(7)(12)10101010---(7)(12)10101010---(7)(12)|
Mute |-10101010----------10101010----------10101010----------10101010----------|
     |-10101010----------10101010----------10101010----------10101010----------|
       ^ ^ ^ ^           ^ ^ ^ ^           ^ ^ ^ ^           ^ ^ ^ ^ 

Gt.1 |--------(7)---------------(7)--------------(7)---------------(7)---------|
Dist.|--------------------------------(7)--------------------------------(7)---|
     |-----------(5)---------------(5)---(7)--------(5)---------------(5)---(7)|
     |-------------------------------------------------------------------------|
     |-------------------------------------------------------------------------|
     |-------------------------------------------------------------------------|

Gt2. |-------------------------------------------------------------------------|
Dist.|-------------------------------------------------------------------------|
     |--------(12)--------------(12)--------------(12)--------------(12)-------|
Palm |-9-9-9-9----(7)(12)9-9-9-9----(7)(12)9-9-9-9----(7)(12)9-9-9-9----(7)(12)|
Mute |-9-9-9-9-----------9-9-9-9-----------9-9-9-9-----------9-9-9-9-----------|
     |-7-7-7-7-----------7-7-7-7-----------7-7-7-7-----------7-7-7-7-----------|
       ^ ^ ^ ^           ^ ^ ^ ^           ^ ^ ^ ^           ^ ^ ^ ^ 

Gt.1 |--------(7)---------------(7)--------------(7)---------------(7)---------|
Dist.|--------------------------------(7)--------------------------------(7)---|
     |-----------(5)---------------(5)---(7)--------(5)---------------(5)---(7)|
     |-------------------------------------------------------------------------|
     |-------------------------------------------------------------------------|
     |-------------------------------------------------------------------------|

Gt.2 |-------------------------------------------------------------------------|
Dist.|-------------------------------------------------------------------------|
     |--------(12)--------------(12)--------------(12)--------------(12)-------|
Palm |-10101010---(7)(12)10101010---(7)(12)10101010---(7)(12)10101010---(7)(12)|
Mute |-10101010----------10101010----------10101010----------10101010----------|
     |-10101010----------10101010----------10101010----------10101010----------|
       ^ ^ ^ ^           ^ ^ ^ ^           ^ ^ ^ ^           ^ ^ ^ ^ 

Gt.1 |--------(7)---------------(7)--------------(7)---------------(7)---------|
Dist.|--------------------------------(7)--------------------------------(7)---|
     |-----------(5)---------------(5)---(7)--------(5)---------------(5)---(7)|
     |-------------------------------------------------------------------------|
     |-------------------------------------------------------------------------|
     |-------------------------------------------------------------------------|

Gt.2 |-------------------------------------------------------------------------|
Dist.|-------------------------------------------------------------------------|
     |--------(12)--------------(12)--------------(12)--------------(12)-------|
Palm |-9-9-9-9----(7)(12)9-9-9-9----(7)(12)9-9-9-9----(7)(12)9-9-9-9----(7)(12)|
Mute |-9-9-9-9-----------9-9-9-9-----------9-9-9-9-----------9-9-9-9-----------|
     |-7-7-7-7-----------7-7-7-7-----------7-7-7-7-----------7-7-7-7-----------|
       ^ ^ ^ ^           ^ ^ ^ ^           ^ ^ ^ ^           ^ ^ ^ ^ 

Gt.1 |-------------------------------------------------------------------------|
Dist.|-------------------------------------------------------------------------|
     |(12)-----(12)-----(12)-----(12)-----(12)-----(12)-----(12)-----(12)------|
     |---(9)(12)--(9)(12)--(9)(12)--(9)(12)--(9)(12)--(9)(12)--(9)(12)--(9)(12)|
     |-------------------------------------------------------------------------|
     |-------------------------------------------------------------------------|

Gt.2 |-------------------------------------------------------------------------|
Dist |-------------------------------------------------------------------------|
     |-------------------------------------------------------------------------|
Strum|-10-xx-xx-10-xx-xx-10-xx-xx-10-xx-xx-9--xx-xx-9--xx-xx-9--xx-xx-9--xx-xx-| 
     |-10-xx-xx-10-xx-xx-10-xx-xx-10-xx-xx-9--xx-xx-9--xx-xx-9--xx-xx-9--xx-xx-|
     |-10-xx-xx-10-xx-xx-10-xx-xx-10-xx-xx-9--xx-xx-9--xx-xx-9--xx-xx-9--xx-xx-|


Gt.1 |-------------------------------------------------------------------------|
Dist.|-------------------------------------------------------------------------|
     |(12)-----(12)-----(12)-----(12)-----(12)-----(12)-----(12)-----(12)------|
     |---(9)(12)--(9)(12)--(9)(12)--(9)(12)--(9)(12)--(9)(12)--(9)(12)--(9)(12)|
     |-------------------------------------------------------------------------|
     |-------------------------------------------------------------------------|
     
Gt.2 |-------------------------------------------------------------------------|
Dist |-------------------------------------------------------------------------|
     |-------------------------------------------------------------------------|
Let  |-9--------11-------12-------7--------12-------11----12/14-12/11/7--------| 
Ring |-7--------9--------10-------5--------10-------9-----10/12-10/9-/5--------|
     |-------------------------------------------------------------------------|


Gt.1 |-------------------------------------------------------------------------|
Dist.|-------------------------------------------------------------------------|
     |(12)-----(12)-----(12)-----(12)-----(12)-----(12)-----(12)-----(12)------|
     |---(9)(12)--(9)(12)--(9)(12)--(9)(12)--(9)(12)--(9)(12)--(9)(12)--(9)(12)|
     |-------------------------------------------------------------------------|
     |-------------------------------------------------------------------------|

Gt.2 |-------------------------------------------------------------------------|
Dist |-------------------------------------------------------------------------|
     |-------------------------------------------------------------------------|
Strum|-10-xx-xx-10-xx-xx-10-xx-xx-10-xx-xx-9--xx-xx-9--xx-xx-9--xx-xx-9--xx-xx-| 
     |-10-xx-xx-10-xx-xx-10-xx-xx-10-xx-xx-9--xx-xx-9--xx-xx-9--xx-xx-9--xx-xx-|
     |-10-xx-xx-10-xx-xx-10-xx-xx-10-xx-xx-9--xx-xx-9--xx-xx-9--xx-xx-9--xx-xx-|


Gt.1 |-------------------------------------------------------------------------|
Dist.|-------------------------------------------------------------------------|
     |(12)-----(12)-----(12)-----(12)-----(12)-----(12)-----(12)-----(12)------|
     |---(9)(12)--(9)(12)--(9)(12)--(9)(12)--(9)(12)--(9)(12)--(9)(12)--(9)(12)|
     |-------------------------------------------------------------------------|
     |-------------------------------------------------------------------------|
     
Gt.2 |-------------------------------------------------------------------------|
Dist |-------------------------------------------------------------------------|
     |-------------------------------------------------------------------------|
Strum|-9--xx-xx-11-xx-xx-12-xx-xx-7--xx-xx-12-xx-xx-11-xx-xx-14/12/11-12/11/7--| 
     |-7--xx-xx-9--xx-xx-10-xx-xx-5--xx-xx-10-xx-xx-9--xx-xx-12/10/9--10/9-/5--|
     |-------------------------------------------------------------------------|

     
Gt.1 |-------------------------------------------------------------------------|
Dist |-------------------------------------------------------------------------|
     |-------------------------------------------------------------------------|
     |-11/1212/14/1616---11/1212/14/1616---11/1212/14/1616---11/1212/14/9-9----|  
     |-9-/1010/12/1414---9-/1010/12/1414---9-/1010/12/1414---9-/1010/12/7-7----|
     |-------------------------------------------------------------------------|

Gt.2 |-------------------------------------------------------------------------|
Dist |-------------------------------------------------------------------------|
     |-------------------------------------------------------------------------|
Strum|-10-xx-xx-10-xx-xx-10-xx-xx-10-xx-xx-9--xx-xx-9--xx-xx-9--xx-xx-9--xx-xx-| 
     |-10-xx-xx-10-xx-xx-10-xx-xx-10-xx-xx-9--xx-xx-9--xx-xx-9--xx-xx-9--xx-xx-|
     |-10-xx-xx-10-xx-xx-10-xx-xx-10-xx-xx-9--xx-xx-9--xx-xx-9--xx-xx-9--xx-xx-|

Gt.1 |-------------------------------------------------------------------------|
Dist |-------------------------------------------------------------------------|
     |-------------------------------------------------------------------------|
Strum|-11111111/12121212/11111111/12121212/11111111/12121212121212121212121212-|
     |-9-9-9-9-/10101010/9-9-9-9-/10101010/9-9-9-9-/10101010101010101010101010-|
     |-------------------------------------------------------------------------|

Gt2. |-------------------------------------------------------------------------|
Dist.|-------------------------------------------------------------------------|
     |-9-9-9-9--9--9--9--9-9-9-9--9--9--9--9-9-9-9--9--9--9--9-9-9-9--9--9--9--|
Palm |-9-9-9-9--9--9--9--9-9-9-9--9--9--9--9-9-9-9--9--9--9--9-9-9-9--9--9--9--|
Mute |-7-7-7-7--7--7--7--7-7-7-7--7--7--7--7-7-7-7--7--7--7--7-7-7-7--7--7--7--|
     |-------------------------------------------------------------------------|
       ^ ^ ^ ^           ^ ^ ^ ^           ^ ^ ^ ^            

Chorus

Gt.1 |-------------------------------------------------------------------------|   
Dist.|-------------------------------------------------------------------------|   
     |-121212121212121212121212121212121212-1111111111111111111111111111111111-|   
Strum|-------------------------------------------------------------------------|   
     |-101010101010101010101010101010101010-9-9-9-9-9-9-9-9-9-9-9-9-9-9-9-9-9--|   
     |-------------------------------------------------------------------------|

Gt.2 |-------------------------------------------------------------------------|
Dist |-------------------------------------------------------------------------|
     |-------------------------------------------------------------------------|
Strum|-101010101010101010101010101010101010-9-9-9-9-9-9-9-9-9-9-9-9-9-9-9-9-9--| 
     |-101010101010101010101010101010101010-9-9-9-9-9-9-9-9-9-9-9-9-9-9-9-9-9--|
     |-101010101010101010101010101010101010-9-9-9-9-9-9-9-9-9-9-9-9-9-9-9-9-9--|   


Gt.1 |-------------------------------------------------------------------------|
Dist.|-------------------------------------------------------------------------|
     |-99999999/11111111/12121212/77777777/99999999/11111111/12121212/16161616-|
Let  |-------------------------------------------------------------------------|
Ring |-77777777/9-9-9-9-/10101010/55555555/77777777/9-9-9-9-/10101010/14141414-|                  

     |-------------------------------------------------------------------------|

Gt.2 |-------------------------------------------------------------------------|
Dist |-------------------------------------------------------------------------|
     |-99999999999999999999999999999999999999999999999999999999999999999999999-|
Strum|-99999999999999999999999999999999999999999999999999999999999999999999999-| 
     |-77777777777777777777777777777777777777777777777777777777777777777777777-|
     |-------------------------------------------------------------------------|  


Gt.1 |-------------------------------------------------------------------------|   
Dist.|-------------------------------------------------------------------------|   
     |-121212121212121212121212121212121212-1111111111111111111111111111111111-|   
Strum|-------------------------------------------------------------------------|   
     |-101010101010101010101010101010101010-9-9-9-9-9-9-9-9-9-9-9-9-9-9-9-9-9--|   
     |-------------------------------------------------------------------------|

Gt.2 |-------------------------------------------------------------------------|
Dist |-------------------------------------------------------------------------|
     |-------------------------------------------------------------------------|
Strum|-101010101010101010101010101010101010-9-9-9-9-9-9-9-9-9-9-9-9-9-9-9-9-9--| 
     |-101010101010101010101010101010101010-9-9-9-9-9-9-9-9-9-9-9-9-9-9-9-9-9--|
     |-101010101010101010101010101010101010-9-9-9-9-9-9-9-9-9-9-9-9-9-9-9-9-9--|   


Gt.1 |-------------------------------------------------------------------------|
Dist.|-------------------------------------------------------------------------|
     |-99999999/11111111/12121212/77777777/99999999999999999999999999999999999-|
Let  |-------------------------------------------------------------------------|
Ring |-77777777/9-9-9-9-/10101010/55555555/77777777777777777777777777777777777-|                  

     |-------------------------------------------------------------------------|

Gt.2 |-------------------------------------------------------------------------|
Dist |-------------------------------------------------------------------------|
     |-99999999999999999999999999999999999999999999999999999999999999999999999-|
Strum|-99999999999999999999999999999999999999999999999999999999999999999999999-| 
     |-77777777777777777777777777777777777777777777777777777777777777777777777-|
     |-------------------------------------------------------------------------|  

Gt.1 |-------------------------------------------------------------------------|   
Dist.|-------------------------------------------------------------------------|   
     |-121212121212121212121212121212121212-1111111111111111111111111111111111-|   
Strum|-------------------------------------------------------------------------|   
     |-101010101010101010101010101010101010-9-9-9-9-9-9-9-9-9-9-9-9-9-9-9-9-9--|   
     |-------------------------------------------------------------------------|

Gt.2 |-------------------------------------------------------------------------|
Dist |-------------------------------------------------------------------------|
     |-------------------------------------------------------------------------|
Strum|-101010101010101010101010101010101010-9-9-9-9-9-9-9-9-9-9-9-9-9-9-9-9-9--| 
     |-101010101010101010101010101010101010-9-9-9-9-9-9-9-9-9-9-9-9-9-9-9-9-9--|
     |-101010101010101010101010101010101010-9-9-9-9-9-9-9-9-9-9-9-9-9-9-9-9-9--|   


Gt.1 |-------------------------------------------------------------------------|
Dist.|-------------------------------------------------------------------------|
     |-99999999/11111111/12121212/77777777/99999999999999999999999999999999999-|
Let  |-------------------------------------------------------------------------|
Ring |-77777777/9-9-9-9-/10101010/55555555/77777777777777777777777777777777777-|                  

     |-------------------------------------------------------------------------|

Gt.2 |-------------------------------------------------------------------------|
Dist |-------------------------------------------------------------------------|
     |-99999999999999999999999999999999999999999999999999999999999999999999999-|
Strum|-99999999999999999999999999999999999999999999999999999999999999999999999-| 
     |-77777777777777777777777777777777777777777777777777777777777777777777777-|
     |-------------------------------------------------------------------------|  

   Outro

Gt.1 |-------------|
Dist.|-------------|
     |-9-9-9-9--9--|
Palm |-9-9-9-9--9--|
Mute |-7-7-7-7--7--|
     |-------------|
       ^ ^ ^ ^      

Gt.2 |-------------|
Dist.|-------------|
     |-9-9-9-9--9--|
Palm |-9-9-9-9--9--|
Mute |-7-7-7-7--7--|
     |-------------|
       ^ ^ ^ ^
Comments