Alexisonfire - Little Girls Pointing And Laughing Chords & Tabs

 

Little Girls Pointing And Laughing Chords & Tabs

Alexisonfire Chords & Tabs

Version: 2 Type: Tab 0 ratings
1 star 2 stars 3 stars 4 stars 5 stars
comments

Little Girls Pointing And Laughing Tab

Tuning= Drop D
                                   Little girls pointing and Laughing
guitar 1   guitar 2  (all slides)
                                               alexisonfire
--5--/---------------------------
--6--/---------------------------
--7--/--9/11/10/15/12/15/11/18---
--7--/---------------------------
-----/--6/-9/-8/13/10/13/-9/16---
-----/---------------------------

--------------------------------------------------------------
-----2h4p2p0-----------------4p2------------------------------
------------1h3-----------1h3---1h3----------1h3--------------
------------------------------------------------4/------------
-8888-----------x4--9999------------x3--9999------------------
-8888---------------9999----------------9999------------------
-8888---------------9999----------------9999------------------
PM...               ....   

--------------------------------------------------------------
------4p2--------------------4p2------------------------------
---------1h3-1h3----------1h3---1h3----------1h3--------------
-8888------------x4--9999-----------x3--9999-----4/-----------
-8888----------------9999---------------9999------------------
-8888----------------9999---------------9999------------------
PM...                ....
[ Tab from: http://www.guitartabs.cc/tabs/a/alexisonfire/little_girls_pointing_and_laughing_tab_ver_2.html ]
---------------------------------(9)----------------(9)-------
------------------------------------(9)---------------(9)-----
---------------------------------------(9)--------------(9)---
-8888-----------8888--------9999-----------x3--9999-------(9)-
-8888-9-8----x3-8888-9-8-11-9999---------------9999-----------
-8888-----11----8888--------9999---------------9999-----------
PM...           ....        ....               ....

--------------------------------------------------------------
--------------------------------------------------------------
------10-10-10------------------------------------------------
-8888-10-10-10------------------------------------------------
-8888-8--8--8--x2---------------------------------------------
-8888---------------------------------------------------------
PM...

For those of you who dont like the harmonics part you can also play it like this...

------14-13--------------14-13--------------------------------
------------14-----------------14-9---------------------------
--------------------------------------------------------------
-9999----------x3--9999---------------------------------------
-9999--------------9999---------------------------------------
-9999--------------9999---------------------------------------
PM...              ....

If anyone has coments about my first tab ever email me i really want to know if 
I messed up on any parts and if u konw the right way then can u show me how ne way
yah have fun with this, this is an awsome song

Email- stb2020@hotmail.com

P.S. AFI rules
Comments