Alexisonfire - Little Girls Pointing And Laughing Chords & Tabs

 

Little Girls Pointing And Laughing Chords & Tabs

Alexisonfire Chords & Tabs

Version: 1 Type: Bass Tab 0 ratings
1 star 2 stars 3 stars 4 stars 5 stars
comments

Little Girls Pointing And Laughing Bass Tab

   
Little Girls Pointing And Laughing
Alexisonfire
Tuning Gb Db AB Eb
Edthebassist

No Bass In Intro

   Verse
    H.        +H.        H.        +Q   Q  Q
||----------|----------|---------|-------------|
||o---------|----------|---------|-------------|
||o-3-------|-(3)------|-3-------|-(3)--3--3---|
||----------|----------|---------|-------------|


  H.        +H.        H.        H.
|---------|----------|---------|-------|
|---------|----------|---------|-5-----|
|-3-------|-(3)------|-3-------|-------|
|---------|----------|---------|-------|


  Q.   Q  E   H.        Q.   Q  E   Q.   Q  E
|-----------|---------|-----------|-----------|
|-----------|---------|-9---------|-----------|
|-7----7--7-|-7-------|------7--7-|-7----7--7-|
|-----------|---------|-----------|-----------|


  Q.   Q  E   H.        Q.   Q  E   Q.   Q  E
|-----------|---------|-----------|------------||
|-----------|---------|-9---------|-----------o||
|-7----7--7-|-7-------|------7--7-|-7----7--7-o||
|-----------|---------|-----------|------------||  x2


   Bridge
    E Q  Q  E   Q  Q  Q    E Q  Q  E   Q  Q  Q
||------------|----------|-----------|-----------|
||o-----------|----------|-----------|-----------|
||o-3-3--3--3-|-3--3--3--|-3-3--3--3-|-3--3--3---|
||------------|----------|-----------|-----------|


  E Q  Q  E   Q  Q  Q    E Q  Q  E   Q  Q  Q
|-----------|----------|-----------|----------|
|-----------|----------|-----------|----------|
|-3-3--3--3-|-3--3--3--|-3-3--3--3-|-3--3--3--|
|-----------|----------|-----------|----------|


  E Q  Q  E   Q  Q  Q    E Q  Q  E   Q  Q  Q
|-----------|----------|-----------|----------|
|-----------|----------|-----------|----------|
|-7-7--7--7-|-7--7--7--|-7-7--7--7-|-7--7--7--|
|-----------|----------|-----------|----------|


  E Q  Q  E   Q  Q  Q    E Q  Q  E   Q  Q  Q
|-----------|----------|-----------|-----------||
|-----------|----------|-----------|----------o||
|-7-7--7--7-|-7--7--7--|-7-7--7--7-|-7--7--7--o||
|-----------|----------|-----------|-----------||  x2


   Interlude
    E Q  Q  E   H.        E Q  Q  E   H.
||------------|---------|-----------|-------|
||o-----------|---------|-----------|-------|
||o-3-3--3--3-|---------|-3-3--3--3-|-------|
||------------|---------|-----------|-------|


  E Q  Q  E   H.        E Q  Q  E   H.
|-----------|---------|-----------|-------|
|-----------|---------|-----------|-------|
|-3-3--3--3-|---------|-3-3--3--3-|-------|
|-----------|---------|-----------|-------|


  E Q  Q  E   H.        E Q  Q  E   H.
|-----------|---------|-----------|-------|
|-----------|---------|-----------|-------|
|-7-7--7--7-|---------|-7-7--7--7-|-------|
|-----------|---------|-----------|-------|


  E Q  Q  E   H.        E Q  Q  E   H.     
|-----------|---------|-----------|--------||
|-----------|---------|-----------|-------o||
|-7-7--7--7-|---------|-7-7--7--7-|-------o||
|-----------|---------|-----------|--------||  x3


  E Q  Q  E   Q  Q  Q    E Q  Q  E   Q  Q  Q
|-----------|----------|-----------|----------|
|-----------|----------|-----------|----------|
|-3-3--3--3-|-3--3--3--|-3-3--3--3-|-3--3--3--|
|-----------|----------|-----------|----------|


  E Q  Q  E   Q  Q  Q    E Q  Q  E   Q  Q  Q
|-----------|----------|-----------|----------|
|-----------|----------|-----------|----------|
|-3-3--3--3-|-3--3--3--|-3-3--3--3-|-3--3--3--|
|-----------|----------|-----------|----------|


  E Q  Q  E   Q  Q  Q    E Q  Q  E   Q  Q  Q
|-----------|----------|-----------|----------|
|-----------|----------|-----------|----------|
|-7-7--7--7-|-7--7--7--|-7-7--7--7-|-7--7--7--|
|-----------|----------|-----------|----------|


  E Q  Q  E   Q  Q  Q    E Q  Q  E   Q  Q  Q
|-----------|----------|-----------|----------|
|-----------|----------|-----------|----------|
|-7-7--7--7-|-7--7--7--|-7-7--7--7-|-7--7--7--|
|-----------|----------|-----------|----------|


   Chorus
    Q  E Q  E   Q  Q  Q    Q  E Q  E   Q  Q  Q
||------------|----------|-----------|-----------|
||o-----------|----------|-----------|-----------|
||o-----------|----------|-----------|-----------|
||--3--3-3--3-|-3--3--3--|-3--3-3--3-|-3--3--3---|


  Q  E Q  E   Q  Q  Q    Q  E Q  E   Q  Q  Q
|-----------|----------|-----------|----------|
|-----------|----------|-----------|----------|
|-----------|----------|-----------|----------|
|-2--2-2--2-|-2--2--2--|-2--2-2--2-|-2--2--2--|


  Q  E Q  E   Q  Q  Q    Q  E Q  E   Q  Q  Q
|-----------|----------|-----------|----------|
|-----------|----------|-----------|----------|
|-----------|----------|-----------|----------|
|-0--0-0--0-|-0--0--0--|-0--0-0--0-|-0--0--5--|


  Q  E Q  E   Q  Q  Q    Q  E Q  E   Q  Q  Q
|-----------|----------|-----------|-----------||
|-----------|----------|-----------|----------o||
|-3--3-3--3-|-3--3--3--|-3--3-3--3-|-3--3--3--o||
|-----------|----------|-----------|-----------||  x2

[ Tab from: http://www.guitartabs.cc/tabs/a/alexisonfire/little_girls_pointing_and_laughing_btab.html ]
   Interlude
    E Q  Q  E   E H    E   E Q  Q  E   E H    E
||------------|----------|-----------|-----------|
||o-----------|----------|-----------|-----------|
||o-3-3--3--3-|-3--------|-3-3--3--3-|-3---------|
||------------|----------|-----------|-----------|


  E Q  Q  E   E H    E   E Q  Q  E   E E Q  Q
|-----------|----------|-----------|-----------|
|-----------|----------|-----------|-----------|
|-3-3--3--3-|-3--------|-3-3--3--3-|-3---3--0--|
|-----------|----------|-----------|-----------|


  E Q  Q  E   E H    E   E Q  Q  E   E H    E
|-----------|----------|-----------|----------|
|-----------|----------|-----------|----------|
|-7-7--7--7-|-7--------|-7-7--7--7-|-7--------|
|-----------|----------|-----------|----------|


  E Q  Q  E   E H    E   E Q  Q  E   E E Q  Q
|-----------|----------|-----------|------------||
|-----------|----------|-----------|-----------o||
|-7-7--7--7-|-7--------|-7-7--7--7-|-7---7-----o||
|-----------|----------|-----------|--------7---|| x2


   Breakdown
    Q  E E E E   Q  E E E E   Q  E E E E   Q  E E E E
||-------------|------------|------------|-------------|
||o------------|------------|------------|-------------|
||o-3--3-3-3-3-|-3--3-3-3-3-|-3--3-3-3-3-|-3--3-3-3-3--|
||-------------|------------|------------|-------------|


  Q  E E E E   Q  E E E E   Q  E E E E   Q  E E E E
|------------|------------|------------|------------|
|------------|------------|------------|------------|
|-2--2-2-2-2-|-2--2-2-2-2-|-2--2-2-2-2-|-2--2-2-2-2-|
|------------|------------|------------|------------|


  Q  E E E E   Q  E E E E   Q  E E E E   Q  E E E E
|------------|------------|------------|------------|
|------------|------------|------------|------------|
|------------|------------|------------|------------|
|-0--0-0-0-0-|-0--0-0-0-0-|-0--0-0-0-0-|-0--0-0-0-0-|


  Q  E E E E   Q  E E E E   Q  E E E E   Q  E E E E
|------------|------------|------------|-------------||
|------------|------------|------------|------------o||
|-3--3-3-3-3-|-3--3-3-3-3-|-3--3-3-3-3-|-3--3-3-3-3-o||
|------------|------------|------------|-------------||  x2


  Q  E E E E   Q  Q  Q    Q  E E E E   Q  Q  Q
|------------|----------|------------|----------|
|------------|----------|------------|----------|
|-3--3-3-3-3-|-3--3--3--|-3--3-3-3-3-|-3--3--3--|
|------------|----------|------------|----------|


  Q  E E E E   Q  Q  Q    Q  E E E E   Q  Q  Q
|------------|----------|------------|----------|
|------------|----------|------------|----------|
|-2--2-2-2-2-|-2--2--2--|-2--2-2-2-2-|-2--2--2--|
|------------|----------|------------|----------|


  E Q  Q  E   H.        E Q  Q  E   H.
|-----------|---------|-----------|-------|
|-----------|---------|-----------|-------|
|-----------|---------|-----------|-------|
|-0-0--0--0-|---------|-0-0--0--0-|-------|


  E Q  Q  E   H.        E Q  Q  E   H    Q
|-----------|---------|-----------|---------|
|-----------|---------|-----------|---------|
|-3-3--3--3-|---------|-3-3--3--3-|---------|
|-----------|---------|-----------|------0--|


   Out-Chorus
    Q  E Q  E   Q  Q  Q    Q  E Q  E   Q  Q  Q
||------------|----------|-----------|-----------|
||o-----------|----------|-----------|-----------|
||o-----------|----------|-----------|-----------|
||--3--3-3--3-|-3--3--3--|-3--3-3--3-|-3--3--3---|


  Q  E Q  E   Q  Q  Q    Q  E Q  E   Q  Q  Q
|-----------|----------|-----------|----------|
|-----------|----------|-----------|----------|
|-----------|----------|-----------|----------|
|-2--2-2--2-|-2--2--2--|-2--2-2--2-|-2--2--2--|


   Q  E Q  E   Q  Q  Q    Q  E Q  E   Q  Q  Q
|------------|----------|-----------|----------|
|------------|----------|-----------|----------|
|-/7--7-7--7-|-7--7--7--|-7--7-7--7-|-7--7--7--|
|------------|----------|-----------|----------|


  Q  E Q  E   Q  Q  Q    Q  E Q  E   Q  Q  Q   
|-----------|----------|-----------|-----------||
|-----------|----------|-5--5-5--5-|-5--5-----o||
|-3--3-3--3-|-3--3--3--|-----------|----------o||
|-----------|----------|-----------|-------0---|| x4


then
  E Q  Q  E   Q  H
|-----------|---------*|
|-----------|---------*|
|-3-3--3--3-|-3-------*|
|-----------|---------*|
Comments