Alexisonfire - Hey Its Your Funeral Mama Chords & Tabs

 

Hey Its Your Funeral Mama Chords & Tabs

Alexisonfire Chords & Tabs

Version: 6 Type: Tab

Hey Its Your Funeral Mama Tab

ok this song is really cool........

Intro
|------------------------------------------------------------|
|------------------------------------------------------------|
|-444-xxxxxxxx--444-xxxxxxxx--222-xxxxxxxx--222-xxxxxxxx-----|
|-444-xxxxxxxx--444-xxxxxxxx--222-xxxxxxxx--222-xxxxxxxx-----|
|-666-xxxxxxxx--666-xxxxxxxx--000-xxxxxxxx--000-xxxxxxxx-----|
|------------------------------------------------------------|

[ Tab from: http://www.guitartabs.cc/tabs/a/alexisonfire/hey_its_your_funeral_mama_tab_ver_6.html ]
|------------------------------------------------------------|
|--------------------------------9---------------------------|
|-----------4h6-----6h9p8p6----------------------------------|
|-------4h6--------------------------------------------------|
|--2-4-------------------------------------------------------|
|------------------------------------------------------------|

|----------------------------7-------------------------------|
|--------------------------------9---------------------------|
|-----------4h6-----6h9p8p6----------------------------------|
|-------4h6--------------------------------------------------|
|--2-4-------------------------------------------------------|
|------------------------------------------------------------|