Alexisonfire - Hey Its Your Funeral Mama Chords & Tabs

 

Hey Its Your Funeral Mama Chords & Tabs

Alexisonfire Chords & Tabs

Version: 3 Type: Tab 0 ratings
1 star 2 stars 3 stars 4 stars 5 stars
comments

Hey Its Your Funeral Mama Tab

Alexisonfire - "Hey, Its Your Funeral Mama"
CD: Watch Out!

Tabs By: Watson from Tera Firma
http://millionsstrong.com

Drop D Tuning

Guitar 1
the x means put to put your fingers over that note like a harmonic and strum
0:00 - 0:17

E-------------15x---------------15x------------7x--------------7x------------|
B-------------15x---------------15x------------7x--------------7x------------|
G-------------15x---------------15x------------7x--------------7x------------|
D-------------15x---------------15x------------7x--------------7x------------| x2
A-11-11-11----15x---11-11-11----15x---7-7-7----7x-----7-7-7----7x------------|
E-11-11-11----15x---11-11-11----15x---7-7-7----7x-----7-7-7----7x------------|

Guitar 1
0:18 - 0:26

E----------------------------------------------------|
B----------------------------------------------------|
G----------------------------------------------- x 2-|
D----------------------------------------------------|
A-11-11-11-11-11--9-9-9-9-9--7-7-7-7-7-7-7-7-7-7-----|
E-11-11-11-11-11--9-9-9-9-9--7-7-7-7-7-7-7-7-7-7-----|

Guitar 2
0:18 - 0:26

E------------------------------------------------------|
B---------------------9-9---------------------12-9-----|
G-----------------9-----------------------9------------|
D-----------9-11---11---------------9-11---11----- x 2-|
A------9-11--------------------9-11--------------------|
E-9-11--------------------9-11-------------------------|

Guitar 1
0:27-1:00
[ Tab from: http://www.guitartabs.cc/tabs/a/alexisonfire/hey_its_your_funeral_mama_tab_ver_3.html ]
E-------------15x---------------15x-------------------------------------------------------------|
B-------------15x---------------15x-------------------------------------------------------------|
G-------------15x---------------15x-------------------------------------------------------------|
D-------------15x---------------15x-------------------------------------------------------------| x2
A-11-11-11----15x---11-11-11----15x---7-7-7-7--7-7-7--7-7-7--7-7-7--4-4-4--4-4-4--4-4-4--4-4-4--|
E-11-11-11----15x---11-11-11----15x---7-7-7-7--7-7-7--7-7-7--7-7-7--4-4-4--4-4-4--4-4-4--4-4-4--|

Guitar 2
0:30-0:34, 0:39-0:43, 0:47-51, 0:55-0:59

E------------------------------------------------------------------------------------------|
B-9h10-9--10-10-9--10-10-9--10-9--10-9--10-10-9--10-10-9--10-9|12-10-9h10h9--12-10-9h10h9--|
G-------------------------------------------------------------|----------------------------|
D-------------------------------------------------------------|----------------------------|
A-------------------------------------------------------------|----------------------------|
E-------------------------------------------------------------|----------------------------|


Guitar 1
1:17-1:51

E------------------------------|
B------------------------------|
G-9-6-4---11-9-16-13-11/13-----|
D-X-X-X---X--X-X--X--X--X------|
A-7-4-2-7-9--7-14-11-9/11------|
E-------7----------------------|


Guitar 2
listen for the right rhythm

1:17-1:34, 1:44-1:51

E--------------|
B--------------|
G--------------| x for the located times that i listen right above
D--------------|
A-11----7----4-|
E-11----7----4-|


There are little bits which i miss in between, but they are fairly simple and easy to 
if you just listen to the song.
Thats the tabs for the whole song, now just repeat them in the right order. Listen to 
song and you'll get it. Its not exact,
but its close enough. The parts i didn't tab, i didn't bother to figure out.
Comments