Alexisonfire - Get Fighted Chords & Tabs

 

Get Fighted Chords & Tabs

Alexisonfire Chords & Tabs

Version: 1 Type: Bass Tab 0 ratings
1 star 2 stars 3 stars 4 stars 5 stars
comments

Get Fighted Bass Tab

Band: Alexisonfire
Song: Get Fighted
Album: Watch out!

Tuning: Drop D, 1/2 step down (Db,Ab,Db,Gb)


Intro - (0:10)
Gb|-------|
Db|-------| *let it ring forever
Ab|-------|
Db|--0~---|


Chorus - (0:32)
Gb|-----------------------------------------|	  
Db|--------------------------3-2----3-2-----| x4  
Ab|--x1-11-11-11-x3-33-33-33-----3------3---|     
Db|-----------------------------------------|     

   (0:59)
Gb|---------------------------------------|
Db|---------------------------------------|
Ab|-xx1-1-1-11-1-1-1--3-3-3-33-3-3-3------|
Db|-----------------------------------0~--|

Verse - (1:03)

*I dont think theres anything actually going on,
but you can just play an open Db over and over.


Bridge - (1:30)
Gb|---------------------------------|
Db|---------------------------------|
Ab|---------------------------------|
Db|--777--777--777--777--3~---------|
[ Tab from: http://www.guitartabs.cc/tabs/a/alexisonfire/get_fighted_btab.html ]
Gb|---------------------------------|
Db|---------------------------------|
Ab|---------------------------------|
Db|--777--777--777--777--3~---/7~---|

[short guitar break]


Chorus - (2:06)
						   play this for a variation
Gb|-----------------------------------------|	    |------------------|
Db|--------------------------3-2----3-2-----| x4  |--3-2-----3-2-7---|
Ab|--x1-11-11-11-x3-33-33-33-----3------3---|     |------3-----------|
Db|-----------------------------------------|     |------------------|

   (2:33) 
Gb|-------------------------------------|
Db|-------------------------------------|
Ab|-xxx1-1-1-11-1-1-1--3-3-3-33-3-3-3---|
Db|-------------------------------------|


Outro - (2:37)
Gb|-------------------------|
Db|-------------------------| x4
Ab|--11-111-1--333-33333-3--|
Db|-------------------------|

Gb|-------------|
Db|--7--2--3~---|
Ab|-------------|
Db|-------------|

Enjoy!
Comments