Alexisonfire - Counterparts And Number Them Chords & Tabs

 

Counterparts And Number Them Chords & Tabs

Alexisonfire Chords & Tabs

Version: 2 Type: Tab 0 ratings
1 star 2 stars 3 stars 4 stars 5 stars
comments

Counterparts And Number Them Tab

tuned down 1 half step
listen for rhythm

intro
e----------------------------|
B----------------------------|
G----------------------------|
D-------5-----4-----2-----4--|
A---0-7---0-5---0-3---0-5----|
E----------------------------|
|                            |
e----------------------------|
B----------------------------|
G----------------------------|make noise on G and B strings!
D-------9-----7-----5-----7--|
A----------------------------|
E----------------------------|

pre-verse
e---------------------------------------------------------------|
B---------------------------------------------------------------|
G---9------------------11------------------12-------------------|
D---x------------------x-------------------x--------------------|
A---7------------------9-------------------10-------------------|
E---0------------------0-------------------0--------------------|
|                                                               |
e---------------------------------------------------------------|
B---------------------------------------------------------------|
G----------------------11------------------12-------------------|
D-----7h9h10---7h9h10--x-------------------x--------------------|
A------------7---------9-------------------10-------------------|
E----------------------0-------------------0--------------------|

verse
e--------------------|
B--------------------|
G--------------------|
D------4-5-7-5-4-----|
A--3-7-----------5---|
E--------------------|
|                    |
e--------------------|
B--------------------|
G--9-----------------|
D--x-keep strumming--|
A--7-----------------|
E--------------------|

chorus
e---------------------------------------------------------------------------|
B-------------------------------------------0-8p0-7p0-5p0-8p0-7p0-5p0-8p5-5-|
G---5-5-4-5-7p5-5-5-7p5-----------------------------------------------------|
D---x-x-x-x-x-x-x-x-x-x-(x2)------------------------------------------------|
A---3-3-3-3-3-3-3-3-3-3-----------------------------------------------------|
E---------------------------0-let ring--------------------------------------|
|                                                                           |
e---------------------------------------------------------------------------|
B------------------------------8-7-8----8-7-8-----8-7-8-----8-7-8-----------|
G---5-----------------------------------------------------------------------|
D---5-keep strumming--------------------------------------------------------|
A---3-----------------------------------------------------------------------|
E---------------------------0-----------------------------------------------|

chorus end
e---------------------|
B---------------------|
G--5------------------|
D--x-keep strumming---|
A--3------------------|
E---------------------|
|                     |
e---------------------|
B---------------------|
G--5------------------|
D--5-keep strumming---|
A--3------------------|
E---------------------|
[ Tab from: http://www.guitartabs.cc/tabs/a/alexisonfire/counterparts_and_number_them_tab_ver_2.html ]
interlude
e----------------------------------------------------|
B----------------------------------------------------|
G-----------------------------5----------------------|
D--2--------------------------x-keep strumming-------|
A--2-strum that weird rhythm--3----------------------|
E--0-------------------------------------------------|
|                                                    |
e----------------------------------------------------|
B-----------------------------8--7--8--7--8--7--8--7-|
G----------------------------------------------------|
D--2-------------------------------------------------|
A--2-strum that weird rhythm-------------------------|
E--0-------------------------------------------------|

bridge (i think the notes are right, but the arpeggios aren't)
e-------0-----------0----------0--------10-0-10----|
B---------0-----------0----------0-----------------|
G---12-------12--11------11--12------12------------|
D--------------------------------------------------|
A--------------------------------------------------|
E--------------------------------------------------|
                                                           x2
e--------0---------0------------0------------------------|
B--------------------0-------------0---12-0-12-0-12-0-12-|
G-----11-----11--9------9--11----------------------------|
D--0-------------0------0--0-----------------------------|
A--------------------------------------------------------|
E--------------------------------------------------------|
then...
e--0-0-0-0-0-0-0-0--|
B--3-3-3-3-3-3-3-3--|
G--2-2-2-2-2-2-2-2--|
D--0-0-0-0-0-0-0-0--|
A-------------------|
E-------------------|

outro(both guitars i think)
e--------------------------------------------------------------------------|
B--------------------------------------------------------------------------|
G--9-9-x-x-x-9-9-x-x-x--12\11/12-------------------------------------------|
D--9-9-x-x-x-9-9-x-x-x--x--x--x---10-10x-x-x-10-10x-x-x-9-9-x-x-x-9-9-x-x-x|
A--7-7-x-x-x-7-7-x-x-x--10\9-/10--10-10x-x-x-10-10x-x-x-9-9-x-x-x-9-9-x-x-x|
E---------------------------------8--8-x-x-x-8--8-x-x-x-7-7-x-x-x-7-7-x-x-x|
x2

e---------------------------------------------------------|\
B---------------------------------------------------------| \
G---------------------------------------------------------|  \
D--10-10-10-9--9--9--10-10-10-12-12-12--10-10-10-9--9--9--|   \
A--x--x--x--x--x--x--x--x--x--x--x--x---x--x--x--x--x--x--|    \
E--8--8--8--7--7--7--8--8--8--10-10-10--8--8--8--7--7--7--|     \
                                                                x2
e---------------------------------------------------------|     /
B---------------------------------------------------------|    /
G----------------------------------------------missing a--|   /
D--10-10-10-9--9--9--7--7--7--5--5--5--7--7--7-few final--|  /
A--x--x--x--x--x--x--x--x--x--x--x--x--x--x--x-notes------| /
E--8--8--8--7--7--7--5--5--5--3--3--3--5--5--5------------|/

e--------------------------------------|
B--------------------------------------|
G--------------------------5--7--9-----|
D--7---5-------5-----4-----5--7--9-----|
A--x---x---0-7---0-5---0-3-3--5--7-----|
E--5---3-------------------------------|

finished!
Comments