Alexisonfire - Charlie Sheen Vs Henry Rollins Chords & Tabs

 

Charlie Sheen Vs Henry Rollins Chords & Tabs

Alexisonfire Chords & Tabs

Version: 2 Type: Tab

Charlie Sheen Vs Henry Rollins Tab

Alexisonfire
Charlie Sheen vs Henry Rollins
Tabbed by Ray Finkle

Intro
Everythings in order to the song. I didn't really try on this tab so its only an
work from this and you'll get it right. Just weren't any tabs out there for such a kick 
song.

Guitar 1
-1-1-1-1-1-1-1-1-1-1-|
-3-3-3-3-3-3-3-3-3-3-|
-4-4-4-4-4-4-4-4-4-4-|  x4
-4-4-4-4-4-4-4-4-4-4-|
-2-2-2-2-2-2-2-2-2-2-|
---------------------|

Guitar 2
--------------------|
--------------------|
--4-4--4/-----------|  x4 Listen to the song for timing
--x-x--x------------|
--2-2--2/-----------|
--------------------|

-------------------------------------------------------------------
Guitar 1
--------------------|
--------------------|
-4------5-----------|  I think these are the chords
-4--7---5--2--------|
-2--7---3--2--------|
----5------0--------|

Guitar 2
----------------------|
---------------8------|
---7-9-----7-9--------| Play this during the B power chord then play the
-9-----9-9------------| rhythm chords with guitar 1
----------------------|
----------------------|

------------------------------------------------------------------
Guitar 1
----------------------|
----------------------|
-4--------------------| This is during Dallas's part
-4--7--5--2-----------|
-2--7--5--2-----------|
----5--3--0-----------|

Guitar 2
----------------------|
---------------8------|
---7-9-----7-9--------| Play this during the B power chord then play the
-9-----9-9------------| rhythm chords with guitar 1
----------------------|
----------------------|

----------------------------------------------------------------------
Guitar 1
----------------------|
----------------------|
-4-----7--------------| Play the D chord longer and hit couple of times
-4--7--7--------------| at the end of this part individually
-2--7--5--------------|
----5-----------------|

Guitar 2
----------------------|
---------------8------|
---7-9-----7-9--------| Play this during the B power chord then play the
-9-----9-9------------| rhythm chords with guitar 1
----------------------|
----------------------|

------------------------------------------------------------------
Intro
------------------------------------------------------------------

Guitar 1 and 2
-------------------------------|
-------------------------------|
-4-----------------------------|
-4--Strum-----------/7-7-7-----|
-2-------------------x-x-x-----|
--------------------/5-5-5-----|

--------------------------------------------------------------------

Guitar 1
--------------------------------------------------------|
--------------------------------------------------------|
-4------------------------------------------------------|
-4--Strum-----------/7-7-7------------------------------|
-2-------------------x-x-x------------------------------|
--------------------/5-5-5---The Palm Mute between the--|                           solo 
and normal part it a
                              B power chord
Guitar 2
--------------------------------------|
-8-7--------8-7-----------------------|
-----7-9--------7-9-------------------|
---------9--------------------/7-7-7--|
-------------------------------x-x-x--|
------------------------------/5-5-5--|

---------------------------------------------------------------------

Guitar 1
--------------------------------|
--------------------------------|
-4-----5------------------------|
-4--7--5--2---------------------|
-2--7--3--2---------------------|
----5-----0---------------------|
[ Tab from: http://www.guitartabs.cc/tabs/a/alexisonfire/charlie_sheen_vs_henry_rollins_tab_ver_2.html ]
Guitar 2
--------------------------------------------------------------------|
-----------------8-7-------8-7--------------------------------------|
-7-9-7-9-7-9-7-9-----7-9-------7-9----------------------------7/9-7-|
-------------------------9---------9-7-/95-----7/95/7/9-7-9---------|
--------------------------------------------------------------------|
--------------------------------------------------------------------|

--------------------------------------------------------------------

Guitar 1
----------------------|
----------------------|
-4--------------------| This is during Dallas's part
-4--7--5--2-----------|
-2--7--5--2-----------| Palm muted
----5--3--0-----------|

Guitar 2
--------------------------------------------------------------------|
-----------------8-7-------8-7--------------------------------------|
-7-9-7-9-7-9-7-9-----7-9-------7-9----------------------------7/9-7-|
-------------------------9---------9-7-/95-----7/95/7/9-7-9---------|
--------------------------------------------------------------------|
--------------------------------------------------------------------|

Guitar 1
----------------------|
----------------------|
-4-----7--------------|
-4--7--7--------------|
-2--7--5--------------|
----5-----------------|

Guitar 2
--------------------------------------------------------------------|
-----------------8-7-------8-7--------------------------------------|
-7-9-7-9-7-9-7-9-----7-9-------7-9----------------------------7/9-7-|
-------------------------9---------9-7-/95-----7/95/7/9-7-9---------|
--------------------------------------------------------------------|
--------------------------------------------------------------------|

------------------------------------------------------------------

Guitar 1
----------------------------------------|
----------------------------------------|
-/4-/4-/4-/4-/4-------------------------| ALOT of times
--x--x--x--x--x-------------------------|
-/2-/2-/2-/2-/2-------------------------|
----------------------------------------|

Another guitar part for Guitar 2 but i dunno

Using
--------------------|
--8-7---------------|
------9-------------|  Using those notes or sumthin
--------------------|
--------------------|
--------------------|

----------------------------------------------------------------------

Guitar 1 and 2
-------------------------------|
-------------------------------|
-4-----------------------------|
-4--Strum-----------/7-7-7-----|
-2-------------------x-x-x-----|
--------------------/5-5-5-----|

--------------------------------------------------------------------

Guitar 1
--------------------------------------------------------|
--------------------------------------------------------|
-4------------------------------------------------------|
-4--Strum-----------/7-7-7------------------------------|
-2-------------------x-x-x------------------------------|
--------------------/5-5-5---The Palm Mute between the--|                           solo 
and normal part it a
                              B power chord
Guitar 2
--------------------------------------|
-8-7--------8-7-----------------------|
-----7-9--------7-9-------------------|
---------9--------------------/7-7-7--|
-------------------------------x-x-x--|
------------------------------/5-5-5--|

-------------------------------------------------------------------------

Guitar 1 and 2

------------------------------------------------------------|
------------------------------------------------------------|
------------------------------------------------------------|
-7-7-7-7-7-7-7-7-7-7-7-7-7-10-10-10-10-10-10-10-10-10-10-10-|
-x-x-x-x-x-x-x-x-x-x-x-x-x-x--x--x--x--x--x--x--x--x--x--x--|
-5-5-5-5-5-5-5-5-5-5-5-5-5-8--8--8--8--8--8--8--8--8--8--8--|

-------------------------------|
-------------------------------|
-------------------------------|
-7-7-7-7-7-7-7-7-7-7-7-7-7-7---|
-x-x-x-x-x-x-x-x-x-x-x-x-x-x---|
-5-5-5-5-5-5-5-5-5-5-5-5-5-5---|


Guitar 1 and 2
-------------------------------|
-------------------------------|
-4-----------------------------| Bunch of times
-4--Strum-----------/7-7-7-----|
-2-------------------x-x-x-----|
--------------------/5-5-5-----|